  0
SECTION
  2
HEADER
  9
$ACADVER
  1
AC1006
  9
$EXTMIN
 10
  -0.2
 20
  -0.3
  9
$EXTMAX
 10
   1.1
 20
   1.2
  0
ENDSEC
  0
SECTION
  2
ENTITIES
  0
POLYLINE
  8
0
 66
     1
 10
    0.0000
 20
    0.0000
 30
    0.0000
 40
    0.0000
 41
    0.0000
  0
VERTEX
  8
0
 10
    0.0000
 20
    0.0000
 30
    0.0000
  0
VERTEX
  8
0
 10
    1.0000
 20
    0.0000
 30
    0.0000
  0
VERTEX
  8
0
 10
    1.0000
 20
    1.1111
 30
    0.0000
  0
VERTEX
  8
0
 10
    0.0000
 20
    1.1111
 30
    0.0000
  0
VERTEX
  8
0
 10
    0.0000
 20
    0.0000
 30
    0.0000
  0
SEQEND
  8
0
  0
TEXT
  8
O
 10
   -0.1000
 20
   -0.1111
 40
    0.0556
 50
    0.0000
  1
Mole fraction CO2 500 bar                                                       
  0
TEXT
  8
O
 10
   -0.1400
 20
    0.2556
 40
    0.0556
 50
   89.9837
  1
Temperature (C)                                                                 
  0
LINE
  8
O
 10
    0.0000
 20
    0.0000
 11
    0.0000
 21
   -0.0143
  0
LINE
  8
O
 10
    0.0000
 20
    1.1111
 11
    0.0000
 21
    1.1254
  0
TEXT
  8
O
 10
   -0.0357
 20
   -0.0429
 40
    0.0278
 50
    0.0000
  1
0.0                                                                             
  0
LINE
  8
O
 10
    0.1000
 20
    0.0000
 11
    0.1000
 21
   -0.0143
  0
LINE
  8
O
 10
    0.1000
 20
    1.1111
 11
    0.1000
 21
    1.1254
  0
TEXT
  8
O
 10
    0.0643
 20
   -0.0429
 40
    0.0278
 50
    0.0000
  1
0.1                                                                             
  0
LINE
  8
O
 10
    0.2000
 20
    0.0000
 11
    0.2000
 21
   -0.0143
  0
LINE
  8
O
 10
    0.2000
 20
    1.1111
 11
    0.2000
 21
    1.1254
  0
TEXT
  8
O
 10
    0.1643
 20
   -0.0429
 40
    0.0278
 50
    0.0000
  1
0.2                                                                             
  0
LINE
  8
O
 10
    0.3000
 20
    0.0000
 11
    0.3000
 21
   -0.0143
  0
LINE
  8
O
 10
    0.3000
 20
    1.1111
 11
    0.3000
 21
    1.1254
  0
TEXT
  8
O
 10
    0.2643
 20
   -0.0429
 40
    0.0278
 50
    0.0000
  1
0.3                                                                             
  0
LINE
  8
O
 10
    0.4000
 20
    0.0000
 11
    0.4000
 21
   -0.0143
  0
LINE
  8
O
 10
    0.4000
 20
    1.1111
 11
    0.4000
 21
    1.1254
  0
TEXT
  8
O
 10
    0.3643
 20
   -0.0429
 40
    0.0278
 50
    0.0000
  1
0.4                                                                             
  0
LINE
  8
O
 10
    0.5000
 20
    0.0000
 11
    0.5000
 21
   -0.0143
  0
LINE
  8
O
 10
    0.5000
 20
    1.1111
 11
    0.5000
 21
    1.1254
  0
TEXT
  8
O
 10
    0.4643
 20
   -0.0429
 40
    0.0278
 50
    0.0000
  1
0.5                                                                             
  0
LINE
  8
O
 10
    0.6000
 20
    0.0000
 11
    0.6000
 21
   -0.0143
  0
LINE
  8
O
 10
    0.6000
 20
    1.1111
 11
    0.6000
 21
    1.1254
  0
TEXT
  8
O
 10
    0.5643
 20
   -0.0429
 40
    0.0278
 50
    0.0000
  1
0.6                                                                             
  0
LINE
  8
O
 10
    0.7000
 20
    0.0000
 11
    0.7000
 21
   -0.0143
  0
LINE
  8
O
 10
    0.7000
 20
    1.1111
 11
    0.7000
 21
    1.1254
  0
TEXT
  8
O
 10
    0.6643
 20
   -0.0429
 40
    0.0278
 50
    0.0000
  1
0.7                                                                             
  0
LINE
  8
O
 10
    0.8000
 20
    0.0000
 11
    0.8000
 21
   -0.0143
  0
LINE
  8
O
 10
    0.8000
 20
    1.1111
 11
    0.8000
 21
    1.1254
  0
TEXT
  8
O
 10
    0.7643
 20
   -0.0429
 40
    0.0278
 50
    0.0000
  1
0.8                                                                             
  0
LINE
  8
O
 10
    0.9000
 20
    0.0000
 11
    0.9000
 21
   -0.0143
  0
LINE
  8
O
 10
    0.9000
 20
    1.1111
 11
    0.9000
 21
    1.1254
  0
TEXT
  8
O
 10
    0.8643
 20
   -0.0429
 40
    0.0278
 50
    0.0000
  1
0.9                                                                             
  0
LINE
  8
O
 10
    1.0000
 20
    0.0000
 11
    1.0000
 21
   -0.0143
  0
LINE
  8
O
 10
    1.0000
 20
    1.1111
 11
    1.0000
 21
    1.1254
  0
TEXT
  8
O
 10
    0.9643
 20
   -0.0429
 40
    0.0278
 50
    0.0000
  1
1.0                                                                             
  0
LINE
  8
O
 10
    1.0000
 20
    0.0000
 11
    1.0143
 21
    0.0000
  0
LINE
  8
O
 10
    0.0000
 20
    0.0000
 11
   -0.0143
 21
    0.0000
  0
TEXT
  8
O
 10
   -0.1238
 20
   -0.0143
 40
    0.0278
 50
    0.0000
  1
350.0                                                                           
  0
LINE
  8
O
 10
    1.0000
 20
    0.2222
 11
    1.0143
 21
    0.2222
  0
LINE
  8
O
 10
    0.0000
 20
    0.2222
 11
   -0.0143
 21
    0.2222
  0
TEXT
  8
O
 10
   -0.0857
 20
    0.2079
 40
    0.0278
 50
    0.0000
  1
400                                                                             
  0
LINE
  8
O
 10
    1.0000
 20
    0.4444
 11
    1.0143
 21
    0.4444
  0
LINE
  8
O
 10
    0.0000
 20
    0.4444
 11
   -0.0143
 21
    0.4444
  0
TEXT
  8
O
 10
   -0.0857
 20
    0.4302
 40
    0.0278
 50
    0.0000
  1
450                                                                             
  0
LINE
  8
O
 10
    1.0000
 20
    0.6667
 11
    1.0143
 21
    0.6667
  0
LINE
  8
O
 10
    0.0000
 20
    0.6667
 11
   -0.0143
 21
    0.6667
  0
TEXT
  8
O
 10
   -0.0857
 20
    0.6524
 40
    0.0278
 50
    0.0000
  1
500                                                                             
  0
LINE
  8
O
 10
    1.0000
 20
    0.8889
 11
    1.0143
 21
    0.8889
  0
LINE
  8
O
 10
    0.0000
 20
    0.8889
 11
   -0.0143
 21
    0.8889
  0
TEXT
  8
O
 10
   -0.0857
 20
    0.8746
 40
    0.0278
 50
    0.0000
  1
550                                                                             
  0
TEXT
  8
O
 10
    0.6670
 20
    1.0741
 40
    0.0133
 50
    0.0000
  1
1 IR -                                                                          
  0
TEXT
  8
O
 10
    0.6670
 20
    1.0741
 40
    0.0133
 50
    0.0000
  1
DEC06.DAT           -DEC06.SLN                                                  
  0
POLYLINE
  8
0
 66
     1
 10
    0.0000
 20
    0.0000
 30
    0.0000
 40
    0.1000
 41
    0.1000
  0
VERTEX
  8
0
 10
    1.0000
 20
    1.0691
 30
    0.0000
  0
VERTEX
  8
0
 10
    0.8600
 20
    1.0199
 30
    0.0000
  0
VERTEX
  8
0
 10
    0.7767
 20
    0.9877
 30
    0.0000
  0
VERTEX
  8
0
 10
    0.6933
 20
    0.9530
 30
    0.0000
  0
VERTEX
  8
0
 10
    0.6100
 20
    0.9150
 30
    0.0000
  0
VERTEX
  8
0
 10
    0.5267
 20
    0.8730
 30
    0.0000
  0
VERTEX
  8
0
 10
    0.4850
 20
    0.8501
 30
    0.0000
  0
VERTEX
  8
0
 10
    0.4433
 20
    0.8258
 30
    0.0000
  0
VERTEX
  8
0
 10
    0.3793
 20
    0.7851
 30
    0.0000
  0
VERTEX
  8
0
 10
    0.3153
 20
    0.7391
 30
    0.0000
  0
VERTEX
  8
0
 10
    0.2833
 20
    0.7136
 30
    0.0000
  0
VERTEX
  8
0
 10
    0.2513
 20
    0.6860
 30
    0.0000
  0
VERTEX
  8
0
 10
    0.2353
 20
    0.6714
 30
    0.0000
  0
VERTEX
  8
0
 10
    0.2313
 20
    0.6676
 30
    0.0000
  0
VERTEX
  8
0
 10
    0.2303
 20
    0.6667
 30
    0.0000
  0
VERTEX
  8
0
 10
    0.2293
 20
    0.6657
 30
    0.0000
  0
VERTEX
  8
0
 10
    0.2253
 20
    0.6619
 30
    0.0000
  0
VERTEX
  8
0
 10
    0.2093
 20
    0.6461
 30
    0.0000
  0
VERTEX
  8
0
 10
    0.1773
 20
    0.6122
 30
    0.0000
  0
VERTEX
  8
0
 10
    0.1453
 20
    0.5745
 30
    0.0000
  0
VERTEX
  8
0
 10
    0.1165
 20
    0.5369
 30
    0.0000
  0
VERTEX
  8
0
 10
    0.0903
 20
    0.4992
 30
    0.0000
  0
VERTEX
  8
0
 10
    0.0662
 20
    0.4616
 30
    0.0000
  0
VERTEX
  8
0
 10
    0.0452
 20
    0.4239
 30
    0.0000
  0
VERTEX
  8
0
 10
    0.0367
 20
    0.4051
 30
    0.0000
  0
VERTEX
  8
0
 10
    0.0299
 20
    0.3863
 30
    0.0000
  0
VERTEX
  8
0
 10
    0.0202
 20
    0.3486
 30
    0.0000
  0
VERTEX
  8
0
 10
    0.0141
 20
    0.3109
 30
    0.0000
  0
VERTEX
  8
0
 10
    0.0100
 20
    0.2733
 30
    0.0000
  0
VERTEX
  8
0
 10
    0.0071
 20
    0.2356
 30
    0.0000
  0
VERTEX
  8
0
 10
    0.0036
 20
    0.1603
 30
    0.0000
  0
VERTEX
  8
0
 10
    0.0018
 20
    0.0850
 30
    0.0000
  0
VERTEX
  8
0
 10
    0.0008
 20
    0.0000
 30
    0.0000
  0
SEQEND
  8
0
  0
TEXT
  8
O
 10
    0.2700
 20
    0.7508
 40
    0.0233
 50
   28.7281
  1
WOLLASTONITE + CARBON DIOXIDE                                                   
  0
TEXT
  8
O
 10
    0.3650
 20
    0.7440
 40
    0.0233
 50
   28.7281
  1
A-QUARTZ + CALCITE                                                              
  0
ENDSEC
  0
EOF
