  0
SECTION
  2
HEADER
  9
$EXTMIN
 10
532310
 20
3235730
  9
$EXTMAX
 10
564776
 20
3263568
  9
$CECOLOR
 62
     0
  9
$CELTYPE
  6
CONTINUOUS
  9
$TEXTSTYLE
  7
STANDARD
  0
ENDSEC
  0
SECTION
  2
TABLES
  0
TABLE
  2
LTYPE
 70
     1
  0
LTYPE
  2
CONTINUOUS
 70
    64
  3
Solid line
 72
    65
 73
     0
 40
0.0
  0
ENDTAB
  0
TABLE
  2
LAYER
 70
    2
  0
LAYER
  2
AU_6140
 70
   64
 62
56
  6
CONTINUOUS
  0
LAYER
  2
AU_6250
 70
   64
 62
59
  6
CONTINUOUS
  0
ENDTAB
  0
TABLE
  2
STYLE
 70
     0
  0
ENDTAB
  0
ENDSEC
  0
SECTION
  2
BLOCKS
  0
ENDSEC
  0
SECTION
  2
ENTITIES
  0
POLYLINE
  8
AU_6140
  6
CONTINUOUS
 62
     8
 66
     1
  0
VERTEX
  8
AU_6140
 62
     8
 10
559354
 20
3254983
  0
VERTEX
  8
AU_6140
 62
     8
 10
559393
 20
3254992
  0
SEQEND
  0
POLYLINE
  8
AU_6140
  6
CONTINUOUS
 62
     8
 66
     1
  0
VERTEX
  8
AU_6140
 62
     8
 10
559313
 20
3254968
  0
VERTEX
  8
AU_6140
 62
     8
 10
559354
 20
3254983
  0
SEQEND
  0
POLYLINE
  8
AU_6140
  6
CONTINUOUS
 62
     8
 66
     1
  0
VERTEX
  8
AU_6140
 62
     8
 10
559667
 20
3255219
  0
VERTEX
  8
AU_6140
 62
     8
 10
559740
 20
3255254
  0
SEQEND
  0
POLYLINE
  8
AU_6140
  6
CONTINUOUS
 62
     8
 66
     1
  0
VERTEX
  8
AU_6140
 62
     8
 10
561941
 20
3256237
  0
VERTEX
  8
AU_6140
 62
     8
 10
561905
 20
3256218
  0
SEQEND
  0
POLYLINE
  8
AU_6140
  6
CONTINUOUS
 62
     8
 66
     1
  0
VERTEX
  8
AU_6140
 62
     8
 10
559300
 20
3255736
  0
VERTEX
  8
AU_6140
 62
     8
 10
559209
 20
3255713
  0
SEQEND
  0
POLYLINE
  8
AU_6140
  6
CONTINUOUS
 62
     8
 66
     1
  0
VERTEX
  8
AU_6140
 62
     8
 10
560343
 20
3255610
  0
VERTEX
  8
AU_6140
 62
     8
 10
560326
 20
3255662
  0
SEQEND
  0
POLYLINE
  8
AU_6140
  6
CONTINUOUS
 62
     8
 66
     1
  0
VERTEX
  8
AU_6140
 62
     8
 10
554751
 20
3252303
  0
VERTEX
  8
AU_6140
 62
     8
 10
554734
 20
3252322
  0
SEQEND
  0
POLYLINE
  8
AU_6140
  6
CONTINUOUS
 62
     8
 66
     1
  0
VERTEX
  8
AU_6140
 62
     8
 10
558394
 20
3255180
  0
VERTEX
  8
AU_6140
 62
     8
 10
558504
 20
3255230
  0
SEQEND
  0
POLYLINE
  8
AU_6140
  6
CONTINUOUS
 62
     8
 66
     1
  0
VERTEX
  8
AU_6140
 62
     8
 10
558418
 20
3255115
  0
VERTEX
  8
AU_6140
 62
     8
 10
558436
 20
3255066
  0
SEQEND
  0
POLYLINE
  8
AU_6140
  6
CONTINUOUS
 62
     8
 66
     1
  0
VERTEX
  8
AU_6140
 62
     8
 10
561363
 20
3255823
  0
VERTEX
  8
AU_6140
 62
     8
 10
561418
 20
3255816
  0
SEQEND
  0
POLYLINE
  8
AU_6140
  6
CONTINUOUS
 62
     8
 66
     1
  0
VERTEX
  8
AU_6140
 62
     8
 10
559740
 20
3255254
  0
VERTEX
  8
AU_6140
 62
     8
 10
559843
 20
3255305
  0
SEQEND
  0
POLYLINE
  8
AU_6140
  6
CONTINUOUS
 62
     8
 66
     1
  0
VERTEX
  8
AU_6140
 62
     8
 10
558436
 20
3255066
  0
VERTEX
  8
AU_6140
 62
     8
 10
558465
 20
3254986
  0
SEQEND
  0
POLYLINE
  8
AU_6140
  6
CONTINUOUS
 62
     8
 66
     1
  0
VERTEX
  8
AU_6140
 62
     8
 10
560310
 20
3255713
  0
VERTEX
  8
AU_6140
 62
     8
 10
560302
 20
3255743
  0
SEQEND
  0
POLYLINE
  8
AU_6140
  6
CONTINUOUS
 62
     8
 66
     1
  0
VERTEX
  8
AU_6140
 62
     8
 10
560252
 20
3255570
  0
VERTEX
  8
AU_6140
 62
     8
 10
560284
 20
3255584
  0
SEQEND
  0
POLYLINE
  8
AU_6140
  6
CONTINUOUS
 62
     8
 66
     1
  0
VERTEX
  8
AU_6140
 62
     8
 10
553774
 20
3250610
  0
VERTEX
  8
AU_6140
 62
     8
 10
553714
 20
3250543
  0
SEQEND
  0
POLYLINE
  8
AU_6140
  6
CONTINUOUS
 62
     8
 66
     1
  0
VERTEX
  8
AU_6140
 62
     8
 10
561418
 20
3255816
  0
VERTEX
  8
AU_6140
 62
     8
 10
561453
 20
3255812
  0
SEQEND
  0
POLYLINE
  8
AU_6140
  6
CONTINUOUS
 62
     8
 66
     1
  0
VERTEX
  8
AU_6140
 62
     8
 10
554889
 20
3252209
  0
VERTEX
  8
AU_6140
 62
     8
 10
554919
 20
3252210
  0
VERTEX
  8
AU_6140
 62
     8
 10
554966
 20
3252179
  0
VERTEX
  8
AU_6140
 62
     8
 10
555023
 20
3252116
  0
SEQEND
  0
POLYLINE
  8
AU_6140
  6
CONTINUOUS
 62
     8
 66
     1
  0
VERTEX
  8
AU_6140
 62
     8
 10
559239
 20
3254941
  0
VERTEX
  8
AU_6140
 62
     8
 10
559313
 20
3254968
  0
SEQEND
  0
POLYLINE
  8
AU_6140
  6
CONTINUOUS
 62
     8
 66
     1
  0
VERTEX
  8
AU_6140
 62
     8
 10
558673
 20
3255072
  0
VERTEX
  8
AU_6140
 62
     8
 10
558763
 20
3255109
  0
SEQEND
  0
POLYLINE
  8
AU_6140
  6
CONTINUOUS
 62
     8
 66
     1
  0
VERTEX
  8
AU_6140
 62
     8
 10
555175
 20
3251973
  0
VERTEX
  8
AU_6140
 62
     8
 10
555147
 20
3251946
  0
SEQEND
  0
POLYLINE
  8
AU_6140
  6
CONTINUOUS
 62
     8
 66
     1
  0
VERTEX
  8
AU_6140
 62
     8
 10
559141
 20
3254989
  0
VERTEX
  8
AU_6140
 62
     8
 10
559160
 20
3254948
  0
SEQEND
  0
POLYLINE
  8
AU_6140
  6
CONTINUOUS
 62
     8
 66
     1
  0
VERTEX
  8
AU_6140
 62
     8
 10
562294
 20
3256287
  0
VERTEX
  8
AU_6140
 62
     8
 10
562281
 20
3256319
  0
SEQEND
  0
POLYLINE
  8
AU_6140
  6
CONTINUOUS
 62
     8
 66
     1
  0
VERTEX
  8
AU_6140
 62
     8
 10
560326
 20
3255662
  0
VERTEX
  8
AU_6140
 62
     8
 10
560310
 20
3255713
  0
SEQEND
  0
POLYLINE
  8
AU_6140
  6
CONTINUOUS
 62
     8
 66
     1
  0
VERTEX
  8
AU_6140
 62
     8
 10
559579
 20
3255176
  0
VERTEX
  8
AU_6140
 62
     8
 10
559667
 20
3255219
  0
SEQEND
  0
POLYLINE
  8
AU_6140
  6
CONTINUOUS
 62
     8
 66
     1
  0
VERTEX
  8
AU_6140
 62
     8
 10
559819
 20
3255842
  0
VERTEX
  8
AU_6140
 62
     8
 10
559738
 20
3255832
  0
SEQEND
  0
POLYLINE
  8
AU_6140
  6
CONTINUOUS
 62
     8
 66
     1
  0
VERTEX
  8
AU_6140
 62
     8
 10
559987
 20
3255880
  0
VERTEX
  8
AU_6140
 62
     8
 10
559819
 20
3255842
  0
SEQEND
  0
POLYLINE
  8
AU_6140
  6
CONTINUOUS
 62
     8
 66
     1
  0
VERTEX
  8
AU_6140
 62
     8
 10
559393
 20
3254992
  0
VERTEX
  8
AU_6140
 62
     8
 10
559432
 20
3255002
  0
SEQEND
  0
POLYLINE
  8
AU_6140
  6
CONTINUOUS
 62
     8
 66
     1
  0
VERTEX
  8
AU_6140
 62
     8
 10
560106
 20
3255395
  0
VERTEX
  8
AU_6140
 62
     8
 10
560224
 20
3255433
  0
SEQEND
  0
POLYLINE
  8
AU_6140
  6
CONTINUOUS
 62
     8
 66
     1
  0
VERTEX
  8
AU_6140
 62
     8
 10
559160
 20
3254948
  0
VERTEX
  8
AU_6140
 62
     8
 10
559177
 20
3254911
  0
SEQEND
  0
POLYLINE
  8
AU_6140
  6
CONTINUOUS
 62
     8
 66
     1
  0
VERTEX
  8
AU_6140
 62
     8
 10
554481
 20
3252129
  0
VERTEX
  8
AU_6140
 62
     8
 10
554578
 20
3252167
  0
SEQEND
  0
POLYLINE
  8
AU_6140
  6
CONTINUOUS
 62
     8
 66
     1
  0
VERTEX
  8
AU_6140
 62
     8
 10
554751
 20
3252303
  0
VERTEX
  8
AU_6140
 62
     8
 10
554816
 20
3252271
  0
VERTEX
  8
AU_6140
 62
     8
 10
554889
 20
3252209
  0
SEQEND
  0
POLYLINE
  8
AU_6140
  6
CONTINUOUS
 62
     8
 66
     1
  0
VERTEX
  8
AU_6140
 62
     8
 10
558771
 20
3255353
  0
VERTEX
  8
AU_6140
 62
     8
 10
558679
 20
3255311
  0
SEQEND
  0
POLYLINE
  8
AU_6140
  6
CONTINUOUS
 62
     8
 66
     1
  0
VERTEX
  8
AU_6140
 62
     8
 10
558763
 20
3255109
  0
VERTEX
  8
AU_6140
 62
     8
 10
558784
 20
3255035
  0
SEQEND
  0
POLYLINE
  8
AU_6140
  6
CONTINUOUS
 62
     8
 66
     1
  0
VERTEX
  8
AU_6140
 62
     8
 10
559177
 20
3254911
  0
VERTEX
  8
AU_6140
 62
     8
 10
559239
 20
3254941
  0
SEQEND
  0
POLYLINE
  8
AU_6140
  6
CONTINUOUS
 62
     8
 66
     1
  0
VERTEX
  8
AU_6140
 62
     8
 10
558853
 20
3255393
  0
VERTEX
  8
AU_6140
 62
     8
 10
558771
 20
3255353
  0
SEQEND
  0
POLYLINE
  8
AU_6140
  6
CONTINUOUS
 62
     8
 66
     1
  0
VERTEX
  8
AU_6140
 62
     8
 10
561560
 20
3256145
  0
VERTEX
  8
AU_6140
 62
     8
 10
561598
 20
3256010
  0
SEQEND
  0
POLYLINE
  8
AU_6140
  6
CONTINUOUS
 62
     8
 66
     1
  0
VERTEX
  8
AU_6140
 62
     8
 10
561598
 20
3256010
  0
VERTEX
  8
AU_6140
 62
     8
 10
561539
 20
3255998
  0
SEQEND
  0
POLYLINE
  8
AU_6140
  6
CONTINUOUS
 62
     8
 66
     1
  0
VERTEX
  8
AU_6140
 62
     8
 10
560302
 20
3255825
  0
VERTEX
  8
AU_6140
 62
     8
 10
560292
 20
3255862
  0
SEQEND
  0
POLYLINE
  8
AU_6140
  6
CONTINUOUS
 62
     8
 66
     1
  0
VERTEX
  8
AU_6140
 62
     8
 10
560224
 20
3255433
  0
VERTEX
  8
AU_6140
 62
     8
 10
560193
 20
3255545
  0
SEQEND
  0
POLYLINE
  8
AU_6140
  6
CONTINUOUS
 62
     8
 66
     1
  0
VERTEX
  8
AU_6140
 62
     8
 10
559843
 20
3255305
  0
VERTEX
  8
AU_6140
 62
     8
 10
559945
 20
3255340
  0
SEQEND
  0
POLYLINE
  8
AU_6140
  6
CONTINUOUS
 62
     8
 66
     1
  0
VERTEX
  8
AU_6140
 62
     8
 10
555023
 20
3252116
  0
VERTEX
  8
AU_6140
 62
     8
 10
555069
 20
3252063
  0
VERTEX
  8
AU_6140
 62
     8
 10
555175
 20
3251973
  0
SEQEND
  0
POLYLINE
  8
AU_6140
  6
CONTINUOUS
 62
     8
 66
     1
  0
VERTEX
  8
AU_6140
 62
     8
 10
553176
 20
3250689
  0
VERTEX
  8
AU_6140
 62
     8
 10
553188
 20
3250599
  0
SEQEND
  0
POLYLINE
  8
AU_6140
  6
CONTINUOUS
 62
     8
 66
     1
  0
VERTEX
  8
AU_6140
 62
     8
 10
555147
 20
3251946
  0
VERTEX
  8
AU_6140
 62
     8
 10
555095
 20
3251894
  0
SEQEND
  0
POLYLINE
  8
AU_6140
  6
CONTINUOUS
 62
     8
 66
     1
  0
VERTEX
  8
AU_6140
 62
     8
 10
558990
 20
3255460
  0
VERTEX
  8
AU_6140
 62
     8
 10
558934
 20
3255433
  0
SEQEND
  0
POLYLINE
  8
AU_6140
  6
CONTINUOUS
 62
     8
 66
     1
  0
VERTEX
  8
AU_6140
 62
     8
 10
559431
 20
3255764
  0
VERTEX
  8
AU_6140
 62
     8
 10
559300
 20
3255736
  0
SEQEND
  0
POLYLINE
  8
AU_6140
  6
CONTINUOUS
 62
     8
 66
     1
  0
VERTEX
  8
AU_6140
 62
     8
 10
560193
 20
3255545
  0
VERTEX
  8
AU_6140
 62
     8
 10
560252
 20
3255570
  0
SEQEND
  0
POLYLINE
  8
AU_6140
  6
CONTINUOUS
 62
     8
 66
     1
  0
VERTEX
  8
AU_6140
 62
     8
 10
560155
 20
3255929
  0
VERTEX
  8
AU_6140
 62
     8
 10
560065
 20
3255903
  0
SEQEND
  0
POLYLINE
  8
AU_6140
  6
CONTINUOUS
 62
     8
 66
     1
  0
VERTEX
  8
AU_6140
 62
     8
 10
560065
 20
3255903
  0
VERTEX
  8
AU_6140
 62
     8
 10
559987
 20
3255880
  0
SEQEND
  0
POLYLINE
  8
AU_6140
  6
CONTINUOUS
 62
     8
 66
     1
  0
VERTEX
  8
AU_6140
 62
     8
 10
553502
 20
3250514
  0
VERTEX
  8
AU_6140
 62
     8
 10
553593
 20
3250428
  0
SEQEND
  0
POLYLINE
  8
AU_6140
  6
CONTINUOUS
 62
     8
 66
     1
  0
VERTEX
  8
AU_6140
 62
     8
 10
553263
 20
3250461
  0
VERTEX
  8
AU_6140
 62
     8
 10
553294
 20
3250428
  0
SEQEND
  0
POLYLINE
  8
AU_6140
  6
CONTINUOUS
 62
     8
 66
     1
  0
VERTEX
  8
AU_6140
 62
     8
 10
553292
 20
3250838
  0
VERTEX
  8
AU_6140
 62
     8
 10
553471
 20
3250835
  0
SEQEND
  0
POLYLINE
  8
AU_6140
  6
CONTINUOUS
 62
     8
 66
     1
  0
VERTEX
  8
AU_6140
 62
     8
 10
553471
 20
3250835
  0
VERTEX
  8
AU_6140
 62
     8
 10
553511
 20
3250832
  0
SEQEND
  0
POLYLINE
  8
AU_6140
  6
CONTINUOUS
 62
     8
 66
     1
  0
VERTEX
  8
AU_6140
 62
     8
 10
558934
 20
3255433
  0
VERTEX
  8
AU_6140
 62
     8
 10
558853
 20
3255393
  0
SEQEND
  0
POLYLINE
  8
AU_6140
  6
CONTINUOUS
 62
     8
 66
     1
  0
VERTEX
  8
AU_6140
 62
     8
 10
555095
 20
3251894
  0
VERTEX
  8
AU_6140
 62
     8
 10
555031
 20
3251836
  0
SEQEND
  0
POLYLINE
  8
AU_6140
  6
CONTINUOUS
 62
     8
 66
     1
  0
VERTEX
  8
AU_6140
 62
     8
 10
560361
 20
3255557
  0
VERTEX
  8
AU_6140
 62
     8
 10
560343
 20
3255610
  0
SEQEND
  0
POLYLINE
  8
AU_6140
  6
CONTINUOUS
 62
     8
 66
     1
  0
VERTEX
  8
AU_6140
 62
     8
 10
553643
 20
3250475
  0
VERTEX
  8
AU_6140
 62
     8
 10
553593
 20
3250428
  0
SEQEND
  0
POLYLINE
  8
AU_6140
  6
CONTINUOUS
 62
     8
 66
     1
  0
VERTEX
  8
AU_6140
 62
     8
 10
561198
 20
3255954
  0
VERTEX
  8
AU_6140
 62
     8
 10
561213
 20
3255878
  0
SEQEND
  0
POLYLINE
  8
AU_6140
  6
CONTINUOUS
 62
     8
 66
     1
  0
VERTEX
  8
AU_6140
 62
     8
 10
555031
 20
3251836
  0
VERTEX
  8
AU_6140
 62
     8
 10
554849
 20
3251996
  0
SEQEND
  0
POLYLINE
  8
AU_6140
  6
CONTINUOUS
 62
     8
 66
     1
  0
VERTEX
  8
AU_6140
 62
     8
 10
558588
 20
3255269
  0
VERTEX
  8
AU_6140
 62
     8
 10
558679
 20
3255311
  0
SEQEND
  0
POLYLINE
  8
AU_6140
  6
CONTINUOUS
 62
     8
 66
     1
  0
VERTEX
  8
AU_6140
 62
     8
 10
553125
 20
3250760
  0
VERTEX
  8
AU_6140
 62
     8
 10
553116
 20
3250727
  0
SEQEND
  0
POLYLINE
  8
AU_6140
  6
CONTINUOUS
 62
     8
 66
     1
  0
VERTEX
  8
AU_6140
 62
     8
 10
553116
 20
3250727
  0
VERTEX
  8
AU_6140
 62
     8
 10
553124
 20
3250689
  0
SEQEND
  0
POLYLINE
  8
AU_6140
  6
CONTINUOUS
 62
     8
 66
     1
  0
VERTEX
  8
AU_6140
 62
     8
 10
553124
 20
3250689
  0
VERTEX
  8
AU_6140
 62
     8
 10
553176
 20
3250689
  0
SEQEND
  0
POLYLINE
  8
AU_6140
  6
CONTINUOUS
 62
     8
 66
     1
  0
VERTEX
  8
AU_6140
 62
     8
 10
553125
 20
3250760
  0
VERTEX
  8
AU_6140
 62
     8
 10
553119
 20
3250810
  0
SEQEND
  0
POLYLINE
  8
AU_6140
  6
CONTINUOUS
 62
     8
 66
     1
  0
VERTEX
  8
AU_6140
 62
     8
 10
553119
 20
3250810
  0
VERTEX
  8
AU_6140
 62
     8
 10
553132
 20
3250856
  0
SEQEND
  0
POLYLINE
  8
AU_6140
  6
CONTINUOUS
 62
     8
 66
     1
  0
VERTEX
  8
AU_6140
 62
     8
 10
553132
 20
3250856
  0
VERTEX
  8
AU_6140
 62
     8
 10
553217
 20
3250835
  0
SEQEND
  0
POLYLINE
  8
AU_6140
  6
CONTINUOUS
 62
     8
 66
     1
  0
VERTEX
  8
AU_6140
 62
     8
 10
553230
 20
3250550
  0
VERTEX
  8
AU_6140
 62
     8
 10
553163
 20
3250501
  0
SEQEND
  0
POLYLINE
  8
AU_6140
  6
CONTINUOUS
 62
     8
 66
     1
  0
VERTEX
  8
AU_6140
 62
     8
 10
553163
 20
3250501
  0
VERTEX
  8
AU_6140
 62
     8
 10
553213
 20
3250409
  0
SEQEND
  0
POLYLINE
  8
AU_6140
  6
CONTINUOUS
 62
     8
 66
     1
  0
VERTEX
  8
AU_6140
 62
     8
 10
553213
 20
3250409
  0
VERTEX
  8
AU_6140
 62
     8
 10
553263
 20
3250461
  0
SEQEND
  0
POLYLINE
  8
AU_6140
  6
CONTINUOUS
 62
     8
 66
     1
  0
VERTEX
  8
AU_6140
 62
     8
 10
553188
 20
3250599
  0
VERTEX
  8
AU_6140
 62
     8
 10
553200
 20
3250554
  0
SEQEND
  0
POLYLINE
  8
AU_6140
  6
CONTINUOUS
 62
     8
 66
     1
  0
VERTEX
  8
AU_6140
 62
     8
 10
553200
 20
3250554
  0
VERTEX
  8
AU_6140
 62
     8
 10
553230
 20
3250550
  0
SEQEND
  0
POLYLINE
  8
AU_6140
  6
CONTINUOUS
 62
     8
 66
     1
  0
VERTEX
  8
AU_6140
 62
     8
 10
553217
 20
3250835
  0
VERTEX
  8
AU_6140
 62
     8
 10
553221
 20
3250857
  0
SEQEND
  0
POLYLINE
  8
AU_6140
  6
CONTINUOUS
 62
     8
 66
     1
  0
VERTEX
  8
AU_6140
 62
     8
 10
553221
 20
3250857
  0
VERTEX
  8
AU_6140
 62
     8
 10
553281
 20
3250908
  0
SEQEND
  0
POLYLINE
  8
AU_6140
  6
CONTINUOUS
 62
     8
 66
     1
  0
VERTEX
  8
AU_6140
 62
     8
 10
553281
 20
3250908
  0
VERTEX
  8
AU_6140
 62
     8
 10
553299
 20
3250878
  0
SEQEND
  0
POLYLINE
  8
AU_6140
  6
CONTINUOUS
 62
     8
 66
     1
  0
VERTEX
  8
AU_6140
 62
     8
 10
553299
 20
3250878
  0
VERTEX
  8
AU_6140
 62
     8
 10
553292
 20
3250838
  0
SEQEND
  0
POLYLINE
  8
AU_6140
  6
CONTINUOUS
 62
     8
 66
     1
  0
VERTEX
  8
AU_6140
 62
     8
 10
553294
 20
3250428
  0
VERTEX
  8
AU_6140
 62
     8
 10
553331
 20
3250383
  0
SEQEND
  0
POLYLINE
  8
AU_6140
  6
CONTINUOUS
 62
     8
 66
     1
  0
VERTEX
  8
AU_6140
 62
     8
 10
553331
 20
3250383
  0
VERTEX
  8
AU_6140
 62
     8
 10
553375
 20
3250415
  0
SEQEND
  0
POLYLINE
  8
AU_6140
  6
CONTINUOUS
 62
     8
 66
     1
  0
VERTEX
  8
AU_6140
 62
     8
 10
553375
 20
3250415
  0
VERTEX
  8
AU_6140
 62
     8
 10
553383
 20
3250406
  0
SEQEND
  0
POLYLINE
  8
AU_6140
  6
CONTINUOUS
 62
     8
 66
     1
  0
VERTEX
  8
AU_6140
 62
     8
 10
553383
 20
3250406
  0
VERTEX
  8
AU_6140
 62
     8
 10
553418
 20
3250439
  0
SEQEND
  0
POLYLINE
  8
AU_6140
  6
CONTINUOUS
 62
     8
 66
     1
  0
VERTEX
  8
AU_6140
 62
     8
 10
553418
 20
3250439
  0
VERTEX
  8
AU_6140
 62
     8
 10
553436
 20
3250469
  0
SEQEND
  0
POLYLINE
  8
AU_6140
  6
CONTINUOUS
 62
     8
 66
     1
  0
VERTEX
  8
AU_6140
 62
     8
 10
553436
 20
3250469
  0
VERTEX
  8
AU_6140
 62
     8
 10
553502
 20
3250514
  0
SEQEND
  0
POLYLINE
  8
AU_6140
  6
CONTINUOUS
 62
     8
 66
     1
  0
VERTEX
  8
AU_6140
 62
     8
 10
553511
 20
3250832
  0
VERTEX
  8
AU_6140
 62
     8
 10
553538
 20
3250883
  0
SEQEND
  0
POLYLINE
  8
AU_6140
  6
CONTINUOUS
 62
     8
 66
     1
  0
VERTEX
  8
AU_6140
 62
     8
 10
553538
 20
3250883
  0
VERTEX
  8
AU_6140
 62
     8
 10
553577
 20
3250869
  0
SEQEND
  0
POLYLINE
  8
AU_6140
  6
CONTINUOUS
 62
     8
 66
     1
  0
VERTEX
  8
AU_6140
 62
     8
 10
553577
 20
3250869
  0
VERTEX
  8
AU_6140
 62
     8
 10
553721
 20
3250763
  0
SEQEND
  0
POLYLINE
  8
AU_6140
  6
CONTINUOUS
 62
     8
 66
     1
  0
VERTEX
  8
AU_6140
 62
     8
 10
553721
 20
3250763
  0
VERTEX
  8
AU_6140
 62
     8
 10
553766
 20
3250738
  0
SEQEND
  0
POLYLINE
  8
AU_6140
  6
CONTINUOUS
 62
     8
 66
     1
  0
VERTEX
  8
AU_6140
 62
     8
 10
553766
 20
3250738
  0
VERTEX
  8
AU_6140
 62
     8
 10
553798
 20
3250724
  0
SEQEND
  0
POLYLINE
  8
AU_6140
  6
CONTINUOUS
 62
     8
 66
     1
  0
VERTEX
  8
AU_6140
 62
     8
 10
553798
 20
3250724
  0
VERTEX
  8
AU_6140
 62
     8
 10
553862
 20
3250697
  0
SEQEND
  0
POLYLINE
  8
AU_6140
  6
CONTINUOUS
 62
     8
 66
     1
  0
VERTEX
  8
AU_6140
 62
     8
 10
553643
 20
3250475
  0
VERTEX
  8
AU_6140
 62
     8
 10
553693
 20
3250521
  0
SEQEND
  0
POLYLINE
  8
AU_6140
  6
CONTINUOUS
 62
     8
 66
     1
  0
VERTEX
  8
AU_6140
 62
     8
 10
553693
 20
3250521
  0
VERTEX
  8
AU_6140
 62
     8
 10
553714
 20
3250543
  0
SEQEND
  0
POLYLINE
  8
AU_6140
  6
CONTINUOUS
 62
     8
 66
     1
  0
VERTEX
  8
AU_6140
 62
     8
 10
553774
 20
3250610
  0
VERTEX
  8
AU_6140
 62
     8
 10
553789
 20
3250626
  0
SEQEND
  0
POLYLINE
  8
AU_6140
  6
CONTINUOUS
 62
     8
 66
     1
  0
VERTEX
  8
AU_6140
 62
     8
 10
553789
 20
3250626
  0
VERTEX
  8
AU_6140
 62
     8
 10
553862
 20
3250697
  0
SEQEND
  0
POLYLINE
  8
AU_6140
  6
CONTINUOUS
 62
     8
 66
     1
  0
VERTEX
  8
AU_6140
 62
     8
 10
554196
 20
3252127
  0
VERTEX
  8
AU_6140
 62
     8
 10
554253
 20
3252138
  0
SEQEND
  0
POLYLINE
  8
AU_6140
  6
CONTINUOUS
 62
     8
 66
     1
  0
VERTEX
  8
AU_6140
 62
     8
 10
554253
 20
3252138
  0
VERTEX
  8
AU_6140
 62
     8
 10
554325
 20
3252161
  0
SEQEND
  0
POLYLINE
  8
AU_6140
  6
CONTINUOUS
 62
     8
 66
     1
  0
VERTEX
  8
AU_6140
 62
     8
 10
554196
 20
3252127
  0
VERTEX
  8
AU_6140
 62
     8
 10
554274
 20
3252181
  0
SEQEND
  0
POLYLINE
  8
AU_6140
  6
CONTINUOUS
 62
     8
 66
     1
  0
VERTEX
  8
AU_6140
 62
     8
 10
554274
 20
3252181
  0
VERTEX
  8
AU_6140
 62
     8
 10
554347
 20
3252258
  0
SEQEND
  0
POLYLINE
  8
AU_6140
  6
CONTINUOUS
 62
     8
 66
     1
  0
VERTEX
  8
AU_6140
 62
     8
 10
554325
 20
3252161
  0
VERTEX
  8
AU_6140
 62
     8
 10
554344
 20
3252079
  0
SEQEND
  0
POLYLINE
  8
AU_6140
  6
CONTINUOUS
 62
     8
 66
     1
  0
VERTEX
  8
AU_6140
 62
     8
 10
554344
 20
3252079
  0
VERTEX
  8
AU_6140
 62
     8
 10
554378
 20
3252089
  0
SEQEND
  0
POLYLINE
  8
AU_6140
  6
CONTINUOUS
 62
     8
 66
     1
  0
VERTEX
  8
AU_6140
 62
     8
 10
554378
 20
3252089
  0
VERTEX
  8
AU_6140
 62
     8
 10
554443
 20
3252112
  0
SEQEND
  0
POLYLINE
  8
AU_6140
  6
CONTINUOUS
 62
     8
 66
     1
  0
VERTEX
  8
AU_6140
 62
     8
 10
554443
 20
3252112
  0
VERTEX
  8
AU_6140
 62
     8
 10
554481
 20
3252129
  0
SEQEND
  0
POLYLINE
  8
AU_6140
  6
CONTINUOUS
 62
     8
 66
     1
  0
VERTEX
  8
AU_6140
 62
     8
 10
554393
 20
3252322
  0
VERTEX
  8
AU_6140
 62
     8
 10
554364
 20
3252360
  0
SEQEND
  0
POLYLINE
  8
AU_6140
  6
CONTINUOUS
 62
     8
 66
     1
  0
VERTEX
  8
AU_6140
 62
     8
 10
554364
 20
3252360
  0
VERTEX
  8
AU_6140
 62
     8
 10
554424
 20
3252427
  0
SEQEND
  0
POLYLINE
  8
AU_6140
  6
CONTINUOUS
 62
     8
 66
     1
  0
VERTEX
  8
AU_6140
 62
     8
 10
554424
 20
3252427
  0
VERTEX
  8
AU_6140
 62
     8
 10
554445
 20
3252442
  0
SEQEND
  0
POLYLINE
  8
AU_6140
  6
CONTINUOUS
 62
     8
 66
     1
  0
VERTEX
  8
AU_6140
 62
     8
 10
554445
 20
3252442
  0
VERTEX
  8
AU_6140
 62
     8
 10
554475
 20
3252441
  0
SEQEND
  0
POLYLINE
  8
AU_6140
  6
CONTINUOUS
 62
     8
 66
     1
  0
VERTEX
  8
AU_6140
 62
     8
 10
554475
 20
3252441
  0
VERTEX
  8
AU_6140
 62
     8
 10
554513
 20
3252403
  0
SEQEND
  0
POLYLINE
  8
AU_6140
  6
CONTINUOUS
 62
     8
 66
     1
  0
VERTEX
  8
AU_6140
 62
     8
 10
554347
 20
3252258
  0
VERTEX
  8
AU_6140
 62
     8
 10
554385
 20
3252315
  0
SEQEND
  0
POLYLINE
  8
AU_6140
  6
CONTINUOUS
 62
     8
 66
     1
  0
VERTEX
  8
AU_6140
 62
     8
 10
554385
 20
3252315
  0
VERTEX
  8
AU_6140
 62
     8
 10
554393
 20
3252322
  0
SEQEND
  0
POLYLINE
  8
AU_6140
  6
CONTINUOUS
 62
     8
 66
     1
  0
VERTEX
  8
AU_6140
 62
     8
 10
554513
 20
3252403
  0
VERTEX
  8
AU_6140
 62
     8
 10
554538
 20
3252421
  0
SEQEND
  0
POLYLINE
  8
AU_6140
  6
CONTINUOUS
 62
     8
 66
     1
  0
VERTEX
  8
AU_6140
 62
     8
 10
554538
 20
3252421
  0
VERTEX
  8
AU_6140
 62
     8
 10
554569
 20
3252435
  0
SEQEND
  0
POLYLINE
  8
AU_6140
  6
CONTINUOUS
 62
     8
 66
     1
  0
VERTEX
  8
AU_6140
 62
     8
 10
554569
 20
3252435
  0
VERTEX
  8
AU_6140
 62
     8
 10
554608
 20
3252463
  0
SEQEND
  0
POLYLINE
  8
AU_6140
  6
CONTINUOUS
 62
     8
 66
     1
  0
VERTEX
  8
AU_6140
 62
     8
 10
554608
 20
3252463
  0
VERTEX
  8
AU_6140
 62
     8
 10
554633
 20
3252438
  0
SEQEND
  0
POLYLINE
  8
AU_6140
  6
CONTINUOUS
 62
     8
 66
     1
  0
VERTEX
  8
AU_6140
 62
     8
 10
554633
 20
3252438
  0
VERTEX
  8
AU_6140
 62
     8
 10
554649
 20
3252411
  0
SEQEND
  0
POLYLINE
  8
AU_6140
  6
CONTINUOUS
 62
     8
 66
     1
  0
VERTEX
  8
AU_6140
 62
     8
 10
554649
 20
3252411
  0
VERTEX
  8
AU_6140
 62
     8
 10
554681
 20
3252372
  0
SEQEND
  0
POLYLINE
  8
AU_6140
  6
CONTINUOUS
 62
     8
 66
     1
  0
VERTEX
  8
AU_6140
 62
     8
 10
554681
 20
3252372
  0
VERTEX
  8
AU_6140
 62
     8
 10
554734
 20
3252322
  0
SEQEND
  0
POLYLINE
  8
AU_6140
  6
CONTINUOUS
 62
     8
 66
     1
  0
VERTEX
  8
AU_6140
 62
     8
 10
554578
 20
3252167
  0
VERTEX
  8
AU_6140
 62
     8
 10
554596
 20
3252140
  0
SEQEND
  0
POLYLINE
  8
AU_6140
  6
CONTINUOUS
 62
     8
 66
     1
  0
VERTEX
  8
AU_6140
 62
     8
 10
554596
 20
3252140
  0
VERTEX
  8
AU_6140
 62
     8
 10
554621
 20
3252113
  0
SEQEND
  0
POLYLINE
  8
AU_6140
  6
CONTINUOUS
 62
     8
 66
     1
  0
VERTEX
  8
AU_6140
 62
     8
 10
554621
 20
3252113
  0
VERTEX
  8
AU_6140
 62
     8
 10
554657
 20
3252088
  0
SEQEND
  0
POLYLINE
  8
AU_6140
  6
CONTINUOUS
 62
     8
 66
     1
  0
VERTEX
  8
AU_6140
 62
     8
 10
554657
 20
3252088
  0
VERTEX
  8
AU_6140
 62
     8
 10
554754
 20
3252044
  0
SEQEND
  0
POLYLINE
  8
AU_6140
  6
CONTINUOUS
 62
     8
 66
     1
  0
VERTEX
  8
AU_6140
 62
     8
 10
554754
 20
3252044
  0
VERTEX
  8
AU_6140
 62
     8
 10
554849
 20
3251996
  0
SEQEND
  0
POLYLINE
  8
AU_6140
  6
CONTINUOUS
 62
     8
 66
     1
  0
VERTEX
  8
AU_6140
 62
     8
 10
558465
 20
3254986
  0
VERTEX
  8
AU_6140
 62
     8
 10
558533
 20
3255014
  0
SEQEND
  0
POLYLINE
  8
AU_6140
  6
CONTINUOUS
 62
     8
 66
     1
  0
VERTEX
  8
AU_6140
 62
     8
 10
558533
 20
3255014
  0
VERTEX
  8
AU_6140
 62
     8
 10
558582
 20
3255035
  0
SEQEND
  0
POLYLINE
  8
AU_6140
  6
CONTINUOUS
 62
     8
 66
     1
  0
VERTEX
  8
AU_6140
 62
     8
 10
558504
 20
3255230
  0
VERTEX
  8
AU_6140
 62
     8
 10
558539
 20
3255246
  0
SEQEND
  0
POLYLINE
  8
AU_6140
  6
CONTINUOUS
 62
     8
 66
     1
  0
VERTEX
  8
AU_6140
 62
     8
 10
558539
 20
3255246
  0
VERTEX
  8
AU_6140
 62
     8
 10
558588
 20
3255269
  0
SEQEND
  0
POLYLINE
  8
AU_6140
  6
CONTINUOUS
 62
     8
 66
     1
  0
VERTEX
  8
AU_6140
 62
     8
 10
558582
 20
3255035
  0
VERTEX
  8
AU_6140
 62
     8
 10
558631
 20
3255055
  0
SEQEND
  0
POLYLINE
  8
AU_6140
  6
CONTINUOUS
 62
     8
 66
     1
  0
VERTEX
  8
AU_6140
 62
     8
 10
558631
 20
3255055
  0
VERTEX
  8
AU_6140
 62
     8
 10
558673
 20
3255072
  0
SEQEND
  0
POLYLINE
  8
AU_6140
  6
CONTINUOUS
 62
     8
 66
     1
  0
VERTEX
  8
AU_6140
 62
     8
 10
558784
 20
3255035
  0
VERTEX
  8
AU_6140
 62
     8
 10
558823
 20
3254944
  0
SEQEND
  0
POLYLINE
  8
AU_6140
  6
CONTINUOUS
 62
     8
 66
     1
  0
VERTEX
  8
AU_6140
 62
     8
 10
558823
 20
3254944
  0
VERTEX
  8
AU_6140
 62
     8
 10
558912
 20
3254981
  0
SEQEND
  0
POLYLINE
  8
AU_6140
  6
CONTINUOUS
 62
     8
 66
     1
  0
VERTEX
  8
AU_6140
 62
     8
 10
558912
 20
3254981
  0
VERTEX
  8
AU_6140
 62
     8
 10
558942
 20
3254906
  0
SEQEND
  0
POLYLINE
  8
AU_6140
  6
CONTINUOUS
 62
     8
 66
     1
  0
VERTEX
  8
AU_6140
 62
     8
 10
558942
 20
3254906
  0
VERTEX
  8
AU_6140
 62
     8
 10
559038
 20
3254945
  0
SEQEND
  0
POLYLINE
  8
AU_6140
  6
CONTINUOUS
 62
     8
 66
     1
  0
VERTEX
  8
AU_6140
 62
     8
 10
558990
 20
3255460
  0
VERTEX
  8
AU_6140
 62
     8
 10
558948
 20
3255568
  0
SEQEND
  0
POLYLINE
  8
AU_6140
  6
CONTINUOUS
 62
     8
 66
     1
  0
VERTEX
  8
AU_6140
 62
     8
 10
558948
 20
3255568
  0
VERTEX
  8
AU_6140
 62
     8
 10
558991
 20
3255595
  0
SEQEND
  0
POLYLINE
  8
AU_6140
  6
CONTINUOUS
 62
     8
 66
     1
  0
VERTEX
  8
AU_6140
 62
     8
 10
558991
 20
3255595
  0
VERTEX
  8
AU_6140
 62
     8
 10
558969
 20
3255641
  0
SEQEND
  0
POLYLINE
  8
AU_6140
  6
CONTINUOUS
 62
     8
 66
     1
  0
VERTEX
  8
AU_6140
 62
     8
 10
558969
 20
3255641
  0
VERTEX
  8
AU_6140
 62
     8
 10
559074
 20
3255713
  0
SEQEND
  0
POLYLINE
  8
AU_6140
  6
CONTINUOUS
 62
     8
 66
     1
  0
VERTEX
  8
AU_6140
 62
     8
 10
559074
 20
3255713
  0
VERTEX
  8
AU_6140
 62
     8
 10
559084
 20
3255739
  0
SEQEND
  0
POLYLINE
  8
AU_6140
  6
CONTINUOUS
 62
     8
 66
     1
  0
VERTEX
  8
AU_6140
 62
     8
 10
559084
 20
3255739
  0
VERTEX
  8
AU_6140
 62
     8
 10
559088
 20
3255741
  0
SEQEND
  0
POLYLINE
  8
AU_6140
  6
CONTINUOUS
 62
     8
 66
     1
  0
VERTEX
  8
AU_6140
 62
     8
 10
559038
 20
3254945
  0
VERTEX
  8
AU_6140
 62
     8
 10
559098
 20
3254969
  0
SEQEND
  0
POLYLINE
  8
AU_6140
  6
CONTINUOUS
 62
     8
 66
     1
  0
VERTEX
  8
AU_6140
 62
     8
 10
559098
 20
3254969
  0
VERTEX
  8
AU_6140
 62
     8
 10
559141
 20
3254989
  0
SEQEND
  0
POLYLINE
  8
AU_6140
  6
CONTINUOUS
 62
     8
 66
     1
  0
VERTEX
  8
AU_6140
 62
     8
 10
559088
 20
3255741
  0
VERTEX
  8
AU_6140
 62
     8
 10
559114
 20
3255758
  0
SEQEND
  0
POLYLINE
  8
AU_6140
  6
CONTINUOUS
 62
     8
 66
     1
  0
VERTEX
  8
AU_6140
 62
     8
 10
559114
 20
3255758
  0
VERTEX
  8
AU_6140
 62
     8
 10
559171
 20
3255781
  0
SEQEND
  0
POLYLINE
  8
AU_6140
  6
CONTINUOUS
 62
     8
 66
     1
  0
VERTEX
  8
AU_6140
 62
     8
 10
559171
 20
3255781
  0
VERTEX
  8
AU_6140
 62
     8
 10
559209
 20
3255713
  0
SEQEND
  0
POLYLINE
  8
AU_6140
  6
CONTINUOUS
 62
     8
 66
     1
  0
VERTEX
  8
AU_6140
 62
     8
 10
559431
 20
3255764
  0
VERTEX
  8
AU_6140
 62
     8
 10
559434
 20
3255775
  0
SEQEND
  0
POLYLINE
  8
AU_6140
  6
CONTINUOUS
 62
     8
 66
     1
  0
VERTEX
  8
AU_6140
 62
     8
 10
559434
 20
3255775
  0
VERTEX
  8
AU_6140
 62
     8
 10
559443
 20
3255790
  0
SEQEND
  0
POLYLINE
  8
AU_6140
  6
CONTINUOUS
 62
     8
 66
     1
  0
VERTEX
  8
AU_6140
 62
     8
 10
559443
 20
3255790
  0
VERTEX
  8
AU_6140
 62
     8
 10
559479
 20
3255812
  0
SEQEND
  0
POLYLINE
  8
AU_6140
  6
CONTINUOUS
 62
     8
 66
     1
  0
VERTEX
  8
AU_6140
 62
     8
 10
559479
 20
3255812
  0
VERTEX
  8
AU_6140
 62
     8
 10
559543
 20
3255841
  0
SEQEND
  0
POLYLINE
  8
AU_6140
  6
CONTINUOUS
 62
     8
 66
     1
  0
VERTEX
  8
AU_6140
 62
     8
 10
559543
 20
3255841
  0
VERTEX
  8
AU_6140
 62
     8
 10
559588
 20
3255847
  0
SEQEND
  0
POLYLINE
  8
AU_6140
  6
CONTINUOUS
 62
     8
 66
     1
  0
VERTEX
  8
AU_6140
 62
     8
 10
559432
 20
3255002
  0
VERTEX
  8
AU_6140
 62
     8
 10
559512
 20
3255026
  0
SEQEND
  0
POLYLINE
  8
AU_6140
  6
CONTINUOUS
 62
     8
 66
     1
  0
VERTEX
  8
AU_6140
 62
     8
 10
559512
 20
3255026
  0
VERTEX
  8
AU_6140
 62
     8
 10
559549
 20
3255035
  0
SEQEND
  0
POLYLINE
  8
AU_6140
  6
CONTINUOUS
 62
     8
 66
     1
  0
VERTEX
  8
AU_6140
 62
     8
 10
559549
 20
3255035
  0
VERTEX
  8
AU_6140
 62
     8
 10
559558
 20
3255041
  0
SEQEND
  0
POLYLINE
  8
AU_6140
  6
CONTINUOUS
 62
     8
 66
     1
  0
VERTEX
  8
AU_6140
 62
     8
 10
559558
 20
3255041
  0
VERTEX
  8
AU_6140
 62
     8
 10
559576
 20
3255052
  0
SEQEND
  0
POLYLINE
  8
AU_6140
  6
CONTINUOUS
 62
     8
 66
     1
  0
VERTEX
  8
AU_6140
 62
     8
 10
559576
 20
3255052
  0
VERTEX
  8
AU_6140
 62
     8
 10
559632
 20
3255095
  0
SEQEND
  0
POLYLINE
  8
AU_6140
  6
CONTINUOUS
 62
     8
 66
     1
  0
VERTEX
  8
AU_6140
 62
     8
 10
559632
 20
3255095
  0
VERTEX
  8
AU_6140
 62
     8
 10
559579
 20
3255176
  0
SEQEND
  0
POLYLINE
  8
AU_6140
  6
CONTINUOUS
 62
     8
 66
     1
  0
VERTEX
  8
AU_6140
 62
     8
 10
559588
 20
3255847
  0
VERTEX
  8
AU_6140
 62
     8
 10
559675
 20
3255850
  0
SEQEND
  0
POLYLINE
  8
AU_6140
  6
CONTINUOUS
 62
     8
 66
     1
  0
VERTEX
  8
AU_6140
 62
     8
 10
559675
 20
3255850
  0
VERTEX
  8
AU_6140
 62
     8
 10
559710
 20
3255847
  0
SEQEND
  0
POLYLINE
  8
AU_6140
  6
CONTINUOUS
 62
     8
 66
     1
  0
VERTEX
  8
AU_6140
 62
     8
 10
559710
 20
3255847
  0
VERTEX
  8
AU_6140
 62
     8
 10
559738
 20
3255832
  0
SEQEND
  0
POLYLINE
  8
AU_6140
  6
CONTINUOUS
 62
     8
 66
     1
  0
VERTEX
  8
AU_6140
 62
     8
 10
559945
 20
3255340
  0
VERTEX
  8
AU_6140
 62
     8
 10
559956
 20
3255344
  0
SEQEND
  0
POLYLINE
  8
AU_6140
  6
CONTINUOUS
 62
     8
 66
     1
  0
VERTEX
  8
AU_6140
 62
     8
 10
559956
 20
3255344
  0
VERTEX
  8
AU_6140
 62
     8
 10
560106
 20
3255395
  0
SEQEND
  0
POLYLINE
  8
AU_6140
  6
CONTINUOUS
 62
     8
 66
     1
  0
VERTEX
  8
AU_6140
 62
     8
 10
560155
 20
3255929
  0
VERTEX
  8
AU_6140
 62
     8
 10
560242
 20
3255964
  0
SEQEND
  0
POLYLINE
  8
AU_6140
  6
CONTINUOUS
 62
     8
 66
     1
  0
VERTEX
  8
AU_6140
 62
     8
 10
560242
 20
3255964
  0
VERTEX
  8
AU_6140
 62
     8
 10
560271
 20
3255938
  0
SEQEND
  0
POLYLINE
  8
AU_6140
  6
CONTINUOUS
 62
     8
 66
     1
  0
VERTEX
  8
AU_6140
 62
     8
 10
560271
 20
3255938
  0
VERTEX
  8
AU_6140
 62
     8
 10
560292
 20
3255862
  0
SEQEND
  0
POLYLINE
  8
AU_6140
  6
CONTINUOUS
 62
     8
 66
     1
  0
VERTEX
  8
AU_6140
 62
     8
 10
560284
 20
3255584
  0
VERTEX
  8
AU_6140
 62
     8
 10
560298
 20
3255547
  0
SEQEND
  0
POLYLINE
  8
AU_6140
  6
CONTINUOUS
 62
     8
 66
     1
  0
VERTEX
  8
AU_6140
 62
     8
 10
560298
 20
3255547
  0
VERTEX
  8
AU_6140
 62
     8
 10
560361
 20
3255557
  0
SEQEND
  0
POLYLINE
  8
AU_6140
  6
CONTINUOUS
 62
     8
 66
     1
  0
VERTEX
  8
AU_6140
 62
     8
 10
560302
 20
3255743
  0
VERTEX
  8
AU_6140
 62
     8
 10
560320
 20
3255761
  0
SEQEND
  0
POLYLINE
  8
AU_6140
  6
CONTINUOUS
 62
     8
 66
     1
  0
VERTEX
  8
AU_6140
 62
     8
 10
560320
 20
3255761
  0
VERTEX
  8
AU_6140
 62
     8
 10
560302
 20
3255825
  0
SEQEND
  0
POLYLINE
  8
AU_6140
  6
CONTINUOUS
 62
     8
 66
     1
  0
VERTEX
  8
AU_6140
 62
     8
 10
561198
 20
3255954
  0
VERTEX
  8
AU_6140
 62
     8
 10
561006
 20
3255924
  0
SEQEND
  0
POLYLINE
  8
AU_6140
  6
CONTINUOUS
 62
     8
 66
     1
  0
VERTEX
  8
AU_6140
 62
     8
 10
561006
 20
3255924
  0
VERTEX
  8
AU_6140
 62
     8
 10
561003
 20
3255931
  0
SEQEND
  0
POLYLINE
  8
AU_6140
  6
CONTINUOUS
 62
     8
 66
     1
  0
VERTEX
  8
AU_6140
 62
     8
 10
561003
 20
3255931
  0
VERTEX
  8
AU_6140
 62
     8
 10
561009
 20
3255943
  0
SEQEND
  0
POLYLINE
  8
AU_6140
  6
CONTINUOUS
 62
     8
 66
     1
  0
VERTEX
  8
AU_6140
 62
     8
 10
561009
 20
3255943
  0
VERTEX
  8
AU_6140
 62
     8
 10
561087
 20
3255979
  0
SEQEND
  0
POLYLINE
  8
AU_6140
  6
CONTINUOUS
 62
     8
 66
     1
  0
VERTEX
  8
AU_6140
 62
     8
 10
561087
 20
3255979
  0
VERTEX
  8
AU_6140
 62
     8
 10
561261
 20
3256054
  0
SEQEND
  0
POLYLINE
  8
AU_6140
  6
CONTINUOUS
 62
     8
 66
     1
  0
VERTEX
  8
AU_6140
 62
     8
 10
561213
 20
3255878
  0
VERTEX
  8
AU_6140
 62
     8
 10
561221
 20
3255840
  0
SEQEND
  0
POLYLINE
  8
AU_6140
  6
CONTINUOUS
 62
     8
 66
     1
  0
VERTEX
  8
AU_6140
 62
     8
 10
561221
 20
3255840
  0
VERTEX
  8
AU_6140
 62
     8
 10
561363
 20
3255823
  0
SEQEND
  0
POLYLINE
  8
AU_6140
  6
CONTINUOUS
 62
     8
 66
     1
  0
VERTEX
  8
AU_6140
 62
     8
 10
561261
 20
3256054
  0
VERTEX
  8
AU_6140
 62
     8
 10
561274
 20
3256062
  0
SEQEND
  0
POLYLINE
  8
AU_6140
  6
CONTINUOUS
 62
     8
 66
     1
  0
VERTEX
  8
AU_6140
 62
     8
 10
561274
 20
3256062
  0
VERTEX
  8
AU_6140
 62
     8
 10
561313
 20
3256089
  0
SEQEND
  0
POLYLINE
  8
AU_6140
  6
CONTINUOUS
 62
     8
 66
     1
  0
VERTEX
  8
AU_6140
 62
     8
 10
561313
 20
3256089
  0
VERTEX
  8
AU_6140
 62
     8
 10
561345
 20
3256120
  0
SEQEND
  0
POLYLINE
  8
AU_6140
  6
CONTINUOUS
 62
     8
 66
     1
  0
VERTEX
  8
AU_6140
 62
     8
 10
561345
 20
3256120
  0
VERTEX
  8
AU_6140
 62
     8
 10
561369
 20
3256133
  0
SEQEND
  0
POLYLINE
  8
AU_6140
  6
CONTINUOUS
 62
     8
 66
     1
  0
VERTEX
  8
AU_6140
 62
     8
 10
561369
 20
3256133
  0
VERTEX
  8
AU_6140
 62
     8
 10
561401
 20
3256141
  0
SEQEND
  0
POLYLINE
  8
AU_6140
  6
CONTINUOUS
 62
     8
 66
     1
  0
VERTEX
  8
AU_6140
 62
     8
 10
561401
 20
3256141
  0
VERTEX
  8
AU_6140
 62
     8
 10
561431
 20
3256149
  0
SEQEND
  0
POLYLINE
  8
AU_6140
  6
CONTINUOUS
 62
     8
 66
     1
  0
VERTEX
  8
AU_6140
 62
     8
 10
561431
 20
3256149
  0
VERTEX
  8
AU_6140
 62
     8
 10
561440
 20
3256143
  0
SEQEND
  0
POLYLINE
  8
AU_6140
  6
CONTINUOUS
 62
     8
 66
     1
  0
VERTEX
  8
AU_6140
 62
     8
 10
561440
 20
3256143
  0
VERTEX
  8
AU_6140
 62
     8
 10
561463
 20
3256059
  0
SEQEND
  0
POLYLINE
  8
AU_6140
  6
CONTINUOUS
 62
     8
 66
     1
  0
VERTEX
  8
AU_6140
 62
     8
 10
561453
 20
3255812
  0
VERTEX
  8
AU_6140
 62
     8
 10
561463
 20
3255753
  0
SEQEND
  0
POLYLINE
  8
AU_6140
  6
CONTINUOUS
 62
     8
 66
     1
  0
VERTEX
  8
AU_6140
 62
     8
 10
561463
 20
3255753
  0
VERTEX
  8
AU_6140
 62
     8
 10
561474
 20
3255720
  0
SEQEND
  0
POLYLINE
  8
AU_6140
  6
CONTINUOUS
 62
     8
 66
     1
  0
VERTEX
  8
AU_6140
 62
     8
 10
561474
 20
3255720
  0
VERTEX
  8
AU_6140
 62
     8
 10
561549
 20
3255720
  0
SEQEND
  0
POLYLINE
  8
AU_6140
  6
CONTINUOUS
 62
     8
 66
     1
  0
VERTEX
  8
AU_6140
 62
     8
 10
561463
 20
3256059
  0
VERTEX
  8
AU_6140
 62
     8
 10
561516
 20
3256068
  0
SEQEND
  0
POLYLINE
  8
AU_6140
  6
CONTINUOUS
 62
     8
 66
     1
  0
VERTEX
  8
AU_6140
 62
     8
 10
561516
 20
3256068
  0
VERTEX
  8
AU_6140
 62
     8
 10
561539
 20
3255998
  0
SEQEND
  0
POLYLINE
  8
AU_6140
  6
CONTINUOUS
 62
     8
 66
     1
  0
VERTEX
  8
AU_6140
 62
     8
 10
561560
 20
3256145
  0
VERTEX
  8
AU_6140
 62
     8
 10
561611
 20
3256164
  0
SEQEND
  0
POLYLINE
  8
AU_6140
  6
CONTINUOUS
 62
     8
 66
     1
  0
VERTEX
  8
AU_6140
 62
     8
 10
561611
 20
3256164
  0
VERTEX
  8
AU_6140
 62
     8
 10
561653
 20
3256171
  0
SEQEND
  0
POLYLINE
  8
AU_6140
  6
CONTINUOUS
 62
     8
 66
     1
  0
VERTEX
  8
AU_6140
 62
     8
 10
561653
 20
3256171
  0
VERTEX
  8
AU_6140
 62
     8
 10
561679
 20
3256175
  0
SEQEND
  0
POLYLINE
  8
AU_6140
  6
CONTINUOUS
 62
     8
 66
     1
  0
VERTEX
  8
AU_6140
 62
     8
 10
561679
 20
3256175
  0
VERTEX
  8
AU_6140
 62
     8
 10
561717
 20
3256183
  0
SEQEND
  0
POLYLINE
  8
AU_6140
  6
CONTINUOUS
 62
     8
 66
     1
  0
VERTEX
  8
AU_6140
 62
     8
 10
561549
 20
3255720
  0
VERTEX
  8
AU_6140
 62
     8
 10
561677
 20
3255720
  0
SEQEND
  0
POLYLINE
  8
AU_6140
  6
CONTINUOUS
 62
     8
 66
     1
  0
VERTEX
  8
AU_6140
 62
     8
 10
561677
 20
3255720
  0
VERTEX
  8
AU_6140
 62
     8
 10
561788
 20
3255724
  0
SEQEND
  0
POLYLINE
  8
AU_6140
  6
CONTINUOUS
 62
     8
 66
     1
  0
VERTEX
  8
AU_6140
 62
     8
 10
561788
 20
3255724
  0
VERTEX
  8
AU_6140
 62
     8
 10
561901
 20
3255735
  0
SEQEND
  0
POLYLINE
  8
AU_6140
  6
CONTINUOUS
 62
     8
 66
     1
  0
VERTEX
  8
AU_6140
 62
     8
 10
561717
 20
3256183
  0
VERTEX
  8
AU_6140
 62
     8
 10
561791
 20
3256198
  0
SEQEND
  0
POLYLINE
  8
AU_6140
  6
CONTINUOUS
 62
     8
 66
     1
  0
VERTEX
  8
AU_6140
 62
     8
 10
561791
 20
3256198
  0
VERTEX
  8
AU_6140
 62
     8
 10
561854
 20
3256217
  0
SEQEND
  0
POLYLINE
  8
AU_6140
  6
CONTINUOUS
 62
     8
 66
     1
  0
VERTEX
  8
AU_6140
 62
     8
 10
561854
 20
3256217
  0
VERTEX
  8
AU_6140
 62
     8
 10
561905
 20
3256218
  0
SEQEND
  0
POLYLINE
  8
AU_6140
  6
CONTINUOUS
 62
     8
 66
     1
  0
VERTEX
  8
AU_6140
 62
     8
 10
561886
 20
3255784
  0
VERTEX
  8
AU_6140
 62
     8
 10
561896
 20
3255805
  0
SEQEND
  0
POLYLINE
  8
AU_6140
  6
CONTINUOUS
 62
     8
 66
     1
  0
VERTEX
  8
AU_6140
 62
     8
 10
561896
 20
3255805
  0
VERTEX
  8
AU_6140
 62
     8
 10
561922
 20
3255861
  0
SEQEND
  0
POLYLINE
  8
AU_6140
  6
CONTINUOUS
 62
     8
 66
     1
  0
VERTEX
  8
AU_6140
 62
     8
 10
561922
 20
3255861
  0
VERTEX
  8
AU_6140
 62
     8
 10
561959
 20
3255873
  0
SEQEND
  0
POLYLINE
  8
AU_6140
  6
CONTINUOUS
 62
     8
 66
     1
  0
VERTEX
  8
AU_6140
 62
     8
 10
561959
 20
3255873
  0
VERTEX
  8
AU_6140
 62
     8
 10
562019
 20
3255818
  0
SEQEND
  0
POLYLINE
  8
AU_6140
  6
CONTINUOUS
 62
     8
 66
     1
  0
VERTEX
  8
AU_6140
 62
     8
 10
562019
 20
3255818
  0
VERTEX
  8
AU_6140
 62
     8
 10
562192
 20
3255889
  0
SEQEND
  0
POLYLINE
  8
AU_6140
  6
CONTINUOUS
 62
     8
 66
     1
  0
VERTEX
  8
AU_6140
 62
     8
 10
562192
 20
3255889
  0
VERTEX
  8
AU_6140
 62
     8
 10
562260
 20
3255918
  0
SEQEND
  0
POLYLINE
  8
AU_6140
  6
CONTINUOUS
 62
     8
 66
     1
  0
VERTEX
  8
AU_6140
 62
     8
 10
562260
 20
3255918
  0
VERTEX
  8
AU_6140
 62
     8
 10
562246
 20
3255990
  0
SEQEND
  0
POLYLINE
  8
AU_6140
  6
CONTINUOUS
 62
     8
 66
     1
  0
VERTEX
  8
AU_6140
 62
     8
 10
561941
 20
3256237
  0
VERTEX
  8
AU_6140
 62
     8
 10
561940
 20
3256260
  0
SEQEND
  0
POLYLINE
  8
AU_6140
  6
CONTINUOUS
 62
     8
 66
     1
  0
VERTEX
  8
AU_6140
 62
     8
 10
561940
 20
3256260
  0
VERTEX
  8
AU_6140
 62
     8
 10
561957
 20
3256273
  0
SEQEND
  0
POLYLINE
  8
AU_6140
  6
CONTINUOUS
 62
     8
 66
     1
  0
VERTEX
  8
AU_6140
 62
     8
 10
561957
 20
3256273
  0
VERTEX
  8
AU_6140
 62
     8
 10
561981
 20
3256285
  0
SEQEND
  0
POLYLINE
  8
AU_6140
  6
CONTINUOUS
 62
     8
 66
     1
  0
VERTEX
  8
AU_6140
 62
     8
 10
561981
 20
3256285
  0
VERTEX
  8
AU_6140
 62
     8
 10
562006
 20
3256289
  0
SEQEND
  0
POLYLINE
  8
AU_6140
  6
CONTINUOUS
 62
     8
 66
     1
  0
VERTEX
  8
AU_6140
 62
     8
 10
562006
 20
3256289
  0
VERTEX
  8
AU_6140
 62
     8
 10
562049
 20
3256288
  0
SEQEND
  0
POLYLINE
  8
AU_6140
  6
CONTINUOUS
 62
     8
 66
     1
  0
VERTEX
  8
AU_6140
 62
     8
 10
562049
 20
3256288
  0
VERTEX
  8
AU_6140
 62
     8
 10
562079
 20
3256288
  0
SEQEND
  0
POLYLINE
  8
AU_6140
  6
CONTINUOUS
 62
     8
 66
     1
  0
VERTEX
  8
AU_6140
 62
     8
 10
562079
 20
3256288
  0
VERTEX
  8
AU_6140
 62
     8
 10
562149
 20
3256298
  0
SEQEND
  0
POLYLINE
  8
AU_6140
  6
CONTINUOUS
 62
     8
 66
     1
  0
VERTEX
  8
AU_6140
 62
     8
 10
562149
 20
3256298
  0
VERTEX
  8
AU_6140
 62
     8
 10
562225
 20
3256316
  0
SEQEND
  0
POLYLINE
  8
AU_6140
  6
CONTINUOUS
 62
     8
 66
     1
  0
VERTEX
  8
AU_6140
 62
     8
 10
562218
 20
3256091
  0
VERTEX
  8
AU_6140
 62
     8
 10
562237
 20
3256032
  0
SEQEND
  0
POLYLINE
  8
AU_6140
  6
CONTINUOUS
 62
     8
 66
     1
  0
VERTEX
  8
AU_6140
 62
     8
 10
562237
 20
3256032
  0
VERTEX
  8
AU_6140
 62
     8
 10
562246
 20
3255990
  0
SEQEND
  0
POLYLINE
  8
AU_6140
  6
CONTINUOUS
 62
     8
 66
     1
  0
VERTEX
  8
AU_6140
 62
     8
 10
562225
 20
3256316
  0
VERTEX
  8
AU_6140
 62
     8
 10
562265
 20
3256324
  0
SEQEND
  0
POLYLINE
  8
AU_6140
  6
CONTINUOUS
 62
     8
 66
     1
  0
VERTEX
  8
AU_6140
 62
     8
 10
562265
 20
3256324
  0
VERTEX
  8
AU_6140
 62
     8
 10
562281
 20
3256319
  0
SEQEND
  0
POLYLINE
  8
AU_6140
  6
CONTINUOUS
 62
     8
 66
     1
  0
VERTEX
  8
AU_6140
 62
     8
 10
562294
 20
3256287
  0
VERTEX
  8
AU_6140
 62
     8
 10
562310
 20
3256264
  0
SEQEND
  0
POLYLINE
  8
AU_6140
  6
CONTINUOUS
 62
     8
 66
     1
  0
VERTEX
  8
AU_6140
 62
     8
 10
562310
 20
3256264
  0
VERTEX
  8
AU_6140
 62
     8
 10
562320
 20
3256234
  0
SEQEND
  0
POLYLINE
  8
AU_6140
  6
CONTINUOUS
 62
     8
 66
     1
  0
VERTEX
  8
AU_6140
 62
     8
 10
562218
 20
3256091
  0
VERTEX
  8
AU_6140
 62
     8
 10
562340
 20
3256112
  0
SEQEND
  0
POLYLINE
  8
AU_6140
  6
CONTINUOUS
 62
     8
 66
     1
  0
VERTEX
  8
AU_6140
 62
     8
 10
562340
 20
3256112
  0
VERTEX
  8
AU_6140
 62
     8
 10
562351
 20
3256117
  0
SEQEND
  0
POLYLINE
  8
AU_6140
  6
CONTINUOUS
 62
     8
 66
     1
  0
VERTEX
  8
AU_6140
 62
     8
 10
562351
 20
3256117
  0
VERTEX
  8
AU_6140
 62
     8
 10
562320
 20
3256234
  0
SEQEND
  0
POLYLINE
  8
AU_6140
  6
CONTINUOUS
 62
     8
 66
     1
  0
VERTEX
  8
AU_6140
 62
     8
 10
558394
 20
3255180
  0
VERTEX
  8
AU_6140
 62
     8
 10
558418
 20
3255115
  0
SEQEND
  0
POLYLINE
  8
AU_6140
  6
CONTINUOUS
 62
     8
 66
     1
  0
VERTEX
  8
AU_6140
 62
     8
 10
561886
 20
3255784
  0
VERTEX
  8
AU_6140
 62
     8
 10
561889
 20
3255760
  0
VERTEX
  8
AU_6140
 62
     8
 10
561901
 20
3255735
  0
SEQEND
  0
POLYLINE
  8
AU_6250
  6
CONTINUOUS
 62
     1
 66
     1
  0
VERTEX
  8
AU_6250
 62
     1
 10
537962
 20
3239338
  0
VERTEX
  8
AU_6250
 62
     1
 10
538032
 20
3239402
  0
VERTEX
  8
AU_6250
 62
     1
 10
537992
 20
3239454
  0
VERTEX
  8
AU_6250
 62
     1
 10
537966
 20
3239451
  0
VERTEX
  8
AU_6250
 62
     1
 10
537920
 20
3239418
  0
SEQEND
  0
POLYLINE
  8
AU_6250
  6
CONTINUOUS
 62
     1
 66
     1
  0
VERTEX
  8
AU_6250
 62
     1
 10
535009
 20
3238806
  0
VERTEX
  8
AU_6250
 62
     1
 10
535089
 20
3238868
  0
SEQEND
  0
POLYLINE
  8
AU_6250
  6
CONTINUOUS
 62
     1
 66
     1
  0
VERTEX
  8
AU_6250
 62
     1
 10
553673
 20
3251160
  0
VERTEX
  8
AU_6250
 62
     1
 10
553757
 20
3251224
  0
SEQEND
  0
POLYLINE
  8
AU_6250
  6
CONTINUOUS
 62
     1
 66
     1
  0
VERTEX
  8
AU_6250
 62
     1
 10
553757
 20
3251224
  0
VERTEX
  8
AU_6250
 62
     1
 10
553830
 20
3251158
  0
VERTEX
  8
AU_6250
 62
     1
 10
553761
 20
3251082
  0
VERTEX
  8
AU_6250
 62
     1
 10
553699
 20
3251135
  0
VERTEX
  8
AU_6250
 62
     1
 10
553673
 20
3251160
  0
SEQEND
  0
POLYLINE
  8
AU_6250
  6
CONTINUOUS
 62
     1
 66
     1
  0
VERTEX
  8
AU_6250
 62
     1
 10
560326
 20
3255662
  0
VERTEX
  8
AU_6250
 62
     1
 10
560384
 20
3255666
  0
VERTEX
  8
AU_6250
 62
     1
 10
560425
 20
3255669
  0
VERTEX
  8
AU_6250
 62
     1
 10
560448
 20
3255659
  0
VERTEX
  8
AU_6250
 62
     1
 10
560464
 20
3255648
  0
VERTEX
  8
AU_6250
 62
     1
 10
560474
 20
3255629
  0
VERTEX
  8
AU_6250
 62
     1
 10
560573
 20
3255355
  0
VERTEX
  8
AU_6250
 62
     1
 10
560439
 20
3255351
  0
VERTEX
  8
AU_6250
 62
     1
 10
560361
 20
3255557
  0
SEQEND
  0
POLYLINE
  8
AU_6250
  6
CONTINUOUS
 62
     1
 66
     1
  0
VERTEX
  8
AU_6250
 62
     1
 10
560343
 20
3255610
  0
VERTEX
  8
AU_6250
 62
     1
 10
560326
 20
3255662
  0
SEQEND
  0
POLYLINE
  8
AU_6250
  6
CONTINUOUS
 62
     1
 66
     1
  0
VERTEX
  8
AU_6250
 62
     1
 10
560361
 20
3255557
  0
VERTEX
  8
AU_6250
 62
     1
 10
560343
 20
3255610
  0
SEQEND
  0
POLYLINE
  8
AU_6250
  6
CONTINUOUS
 62
     1
 66
     1
  0
VERTEX
  8
AU_6250
 62
     1
 10
535009
 20
3238806
  0
VERTEX
  8
AU_6250
 62
     1
 10
534970
 20
3238859
  0
VERTEX
  8
AU_6250
 62
     1
 10
534932
 20
3238911
  0
VERTEX
  8
AU_6250
 62
     1
 10
535018
 20
3238973
  0
VERTEX
  8
AU_6250
 62
     1
 10
535053
 20
3238921
  0
VERTEX
  8
AU_6250
 62
     1
 10
535089
 20
3238868
  0
SEQEND
  0
POLYLINE
  8
AU_6250
  6
CONTINUOUS
 62
     1
 66
     1
  0
VERTEX
  8
AU_6250
 62
     1
 10
537920
 20
3239418
  0
VERTEX
  8
AU_6250
 62
     1
 10
537929
 20
3239392
  0
VERTEX
  8
AU_6250
 62
     1
 10
537948
 20
3239353
  0
VERTEX
  8
AU_6250
 62
     1
 10
537962
 20
3239338
  0
SEQEND
  0
ENDSEC
  0
EOF
