  0
SECTION
  2
HEADER
  9
$EXTMIN
 10
532310
 20
3235730
  9
$EXTMAX
 10
564776
 20
3263568
  9
$CECOLOR
 62
     0
  9
$CELTYPE
  6
CONTINUOUS
  9
$TEXTSTYLE
  7
STANDARD
  0
ENDSEC
  0
SECTION
  2
TABLES
  0
TABLE
  2
LTYPE
 70
     1
  0
LTYPE
  2
CONTINUOUS
 70
    64
  3
Solid line
 72
    65
 73
     0
 40
0.0
  0
ENDTAB
  0
TABLE
  2
LAYER
 70
    3
  0
LAYER
  2
CD_3501
 70
   64
 62
56
  6
CONTINUOUS
  0
LAYER
  2
CD_3504
 70
   64
 62
59
  6
CONTINUOUS
  0
LAYER
  2
CD_3507
 70
   64
 62
62
  6
CONTINUOUS
  0
ENDTAB
  0
TABLE
  2
STYLE
 70
     0
  0
ENDTAB
  0
ENDSEC
  0
SECTION
  2
BLOCKS
  0
ENDSEC
  0
SECTION
  2
ENTITIES
  0
POLYLINE
  8
CD_3501
  6
CONTINUOUS
 62
    12
 66
     1
  0
VERTEX
  8
CD_3501
 62
    12
 10
547534
 20
3244524
  0
VERTEX
  8
CD_3501
 62
    12
 10
547893
 20
3244534
  0
VERTEX
  8
CD_3501
 62
    12
 10
560396
 20
3251944
  0
SEQEND
  0
POLYLINE
  8
CD_3501
  6
CONTINUOUS
 62
    12
 66
     1
  0
VERTEX
  8
CD_3501
 62
    12
 10
532382
 20
3237970
  0
VERTEX
  8
CD_3501
 62
    12
 10
532637
 20
3238133
  0
VERTEX
  8
CD_3501
 62
    12
 10
538544
 20
3243355
  0
VERTEX
  8
CD_3501
 62
    12
 10
539639
 20
3244300
  0
VERTEX
  8
CD_3501
 62
    12
 10
547534
 20
3244524
  0
SEQEND
  0
POLYLINE
  8
CD_3501
  6
CONTINUOUS
 62
    12
 66
     1
  0
VERTEX
  8
CD_3501
 62
    12
 10
560396
 20
3251944
  0
VERTEX
  8
CD_3501
 62
    12
 10
564110
 20
3254146
  0
VERTEX
  8
CD_3501
 62
    12
 10
564671
 20
3254493
  0
SEQEND
  0
POLYLINE
  8
CD_3504
  6
CONTINUOUS
 62
    12
 66
     1
  0
VERTEX
  8
CD_3504
 62
    12
 10
552018
 20
3249203
  0
VERTEX
  8
CD_3504
 62
    12
 10
552911
 20
3249945
  0
VERTEX
  8
CD_3504
 62
    12
 10
553275
 20
3250242
  0
VERTEX
  8
CD_3504
 62
    12
 10
553540
 20
3250478
  0
SEQEND
  0
POLYLINE
  8
CD_3504
  6
CONTINUOUS
 62
    12
 66
     1
  0
VERTEX
  8
CD_3504
 62
    12
 10
552018
 20
3249203
  0
VERTEX
  8
CD_3504
 62
    12
 10
552221
 20
3249419
  0
VERTEX
  8
CD_3504
 62
    12
 10
552231
 20
3249434
  0
VERTEX
  8
CD_3504
 62
    12
 10
552354
 20
3249573
  0
VERTEX
  8
CD_3504
 62
    12
 10
552394
 20
3249623
  0
VERTEX
  8
CD_3504
 62
    12
 10
552438
 20
3249673
  0
VERTEX
  8
CD_3504
 62
    12
 10
552472
 20
3249707
  0
VERTEX
  8
CD_3504
 62
    12
 10
552821
 20
3250082
  0
VERTEX
  8
CD_3504
 62
    12
 10
552997
 20
3250260
  0
VERTEX
  8
CD_3504
 62
    12
 10
553075
 20
3250346
  0
VERTEX
  8
CD_3504
 62
    12
 10
553186
 20
3250458
  0
SEQEND
  0
POLYLINE
  8
CD_3504
  6
CONTINUOUS
 62
    12
 66
     1
  0
VERTEX
  8
CD_3504
 62
    12
 10
553493
 20
3250833
  0
VERTEX
  8
CD_3504
 62
    12
 10
553518
 20
3251010
  0
VERTEX
  8
CD_3504
 62
    12
 10
553567
 20
3251273
  0
SEQEND
  0
POLYLINE
  8
CD_3504
  6
CONTINUOUS
 62
    12
 66
     1
  0
VERTEX
  8
CD_3504
 62
    12
 10
553798
 20
3250724
  0
VERTEX
  8
CD_3504
 62
    12
 10
553895
 20
3250818
  0
VERTEX
  8
CD_3504
 62
    12
 10
554116
 20
3251022
  0
VERTEX
  8
CD_3504
 62
    12
 10
554213
 20
3251118
  0
VERTEX
  8
CD_3504
 62
    12
 10
554249
 20
3251146
  0
VERTEX
  8
CD_3504
 62
    12
 10
554363
 20
3251267
  0
VERTEX
  8
CD_3504
 62
    12
 10
554483
 20
3251381
  0
VERTEX
  8
CD_3504
 62
    12
 10
554681
 20
3251586
  0
VERTEX
  8
CD_3504
 62
    12
 10
554894
 20
3251791
  0
VERTEX
  8
CD_3504
 62
    12
 10
554946
 20
3251846
  0
VERTEX
  8
CD_3504
 62
    12
 10
554981
 20
3251880
  0
SEQEND
  0
POLYLINE
  8
CD_3504
  6
CONTINUOUS
 62
    12
 66
     1
  0
VERTEX
  8
CD_3504
 62
    12
 10
556981
 20
3253849
  0
VERTEX
  8
CD_3504
 62
    12
 10
557178
 20
3253715
  0
SEQEND
  0
POLYLINE
  8
CD_3504
  6
CONTINUOUS
 62
    12
 66
     1
  0
VERTEX
  8
CD_3504
 62
    12
 10
557208
 20
3254119
  0
VERTEX
  8
CD_3504
 62
    12
 10
557294
 20
3254221
  0
VERTEX
  8
CD_3504
 62
    12
 10
557455
 20
3254419
  0
VERTEX
  8
CD_3504
 62
    12
 10
557557
 20
3254531
  0
VERTEX
  8
CD_3504
 62
    12
 10
557575
 20
3254553
  0
SEQEND
  0
POLYLINE
  8
CD_3504
  6
CONTINUOUS
 62
    12
 66
     1
  0
VERTEX
  8
CD_3504
 62
    12
 10
557575
 20
3254553
  0
VERTEX
  8
CD_3504
 62
    12
 10
557635
 20
3254628
  0
VERTEX
  8
CD_3504
 62
    12
 10
557771
 20
3254794
  0
SEQEND
  0
POLYLINE
  8
CD_3504
  6
CONTINUOUS
 62
    12
 66
     1
  0
VERTEX
  8
CD_3504
 62
    12
 10
557771
 20
3254794
  0
VERTEX
  8
CD_3504
 62
    12
 10
557935
 20
3254993
  0
VERTEX
  8
CD_3504
 62
    12
 10
557943
 20
3255000
  0
VERTEX
  8
CD_3504
 62
    12
 10
558042
 20
3255048
  0
VERTEX
  8
CD_3504
 62
    12
 10
558136
 20
3255098
  0
VERTEX
  8
CD_3504
 62
    12
 10
558373
 20
3255207
  0
VERTEX
  8
CD_3504
 62
    12
 10
558412
 20
3255223
  0
SEQEND
  0
POLYLINE
  8
CD_3504
  6
CONTINUOUS
 62
    12
 66
     1
  0
VERTEX
  8
CD_3504
 62
    12
 10
557771
 20
3254794
  0
VERTEX
  8
CD_3504
 62
    12
 10
558399
 20
3255165
  0
SEQEND
  0
POLYLINE
  8
CD_3504
  6
CONTINUOUS
 62
    12
 66
     1
  0
VERTEX
  8
CD_3504
 62
    12
 10
558412
 20
3255223
  0
VERTEX
  8
CD_3504
 62
    12
 10
558378
 20
3255315
  0
VERTEX
  8
CD_3504
 62
    12
 10
558228
 20
3255482
  0
VERTEX
  8
CD_3504
 62
    12
 10
558201
 20
3255517
  0
VERTEX
  8
CD_3504
 62
    12
 10
558152
 20
3255567
  0
VERTEX
  8
CD_3504
 62
    12
 10
558140
 20
3255588
  0
VERTEX
  8
CD_3504
 62
    12
 10
558013
 20
3255734
  0
VERTEX
  8
CD_3504
 62
    12
 10
557831
 20
3255954
  0
VERTEX
  8
CD_3504
 62
    12
 10
557149
 20
3256396
  0
VERTEX
  8
CD_3504
 62
    12
 10
557056
 20
3256465
  0
VERTEX
  8
CD_3504
 62
    12
 10
556981
 20
3256518
  0
SEQEND
  0
POLYLINE
  8
CD_3504
  6
CONTINUOUS
 62
    12
 66
     1
  0
VERTEX
  8
CD_3504
 62
    12
 10
555211
 20
3263519
  0
VERTEX
  8
CD_3504
 62
    12
 10
556159
 20
3260079
  0
VERTEX
  8
CD_3504
 62
    12
 10
556121
 20
3259499
  0
VERTEX
  8
CD_3504
 62
    12
 10
556920
 20
3258199
  0
VERTEX
  8
CD_3504
 62
    12
 10
557047
 20
3256992
  0
SEQEND
  0
POLYLINE
  8
CD_3504
  6
CONTINUOUS
 62
    12
 66
     1
  0
VERTEX
  8
CD_3504
 62
    12
 10
559116
 20
3254977
  0
VERTEX
  8
CD_3504
 62
    12
 10
559157
 20
3254882
  0
SEQEND
  0
POLYLINE
  8
CD_3504
  6
CONTINUOUS
 62
    12
 66
     1
  0
VERTEX
  8
CD_3504
 62
    12
 10
558662
 20
3254986
  0
VERTEX
  8
CD_3504
 62
    12
 10
558676
 20
3254955
  0
VERTEX
  8
CD_3504
 62
    12
 10
558776
 20
3254998
  0
VERTEX
  8
CD_3504
 62
    12
 10
558798
 20
3254956
  0
VERTEX
  8
CD_3504
 62
    12
 10
558819
 20
3254904
  0
VERTEX
  8
CD_3504
 62
    12
 10
558836
 20
3254817
  0
VERTEX
  8
CD_3504
 62
    12
 10
559116
 20
3254869
  0
VERTEX
  8
CD_3504
 62
    12
 10
559157
 20
3254882
  0
SEQEND
  0
POLYLINE
  8
CD_3504
  6
CONTINUOUS
 62
    12
 66
     1
  0
VERTEX
  8
CD_3504
 62
    12
 10
559157
 20
3254882
  0
VERTEX
  8
CD_3504
 62
    12
 10
560006
 20
3255147
  0
VERTEX
  8
CD_3504
 62
    12
 10
560138
 20
3255179
  0
VERTEX
  8
CD_3504
 62
    12
 10
560459
 20
3255264
  0
VERTEX
  8
CD_3504
 62
    12
 10
560676
 20
3255316
  0
VERTEX
  8
CD_3504
 62
    12
 10
560881
 20
3255371
  0
VERTEX
  8
CD_3504
 62
    12
 10
560965
 20
3255388
  0
VERTEX
  8
CD_3504
 62
    12
 10
561679
 20
3255573
  0
VERTEX
  8
CD_3504
 62
    12
 10
561729
 20
3255584
  0
VERTEX
  8
CD_3504
 62
    12
 10
561958
 20
3255638
  0
VERTEX
  8
CD_3504
 62
    12
 10
561998
 20
3255652
  0
VERTEX
  8
CD_3504
 62
    12
 10
562035
 20
3255657
  0
VERTEX
  8
CD_3504
 62
    12
 10
562327
 20
3255732
  0
VERTEX
  8
CD_3504
 62
    12
 10
562524
 20
3255785
  0
VERTEX
  8
CD_3504
 62
    12
 10
562833
 20
3255865
  0
VERTEX
  8
CD_3504
 62
    12
 10
562846
 20
3255868
  0
VERTEX
  8
CD_3504
 62
    12
 10
563590
 20
3256050
  0
VERTEX
  8
CD_3504
 62
    12
 10
563901
 20
3256124
  0
VERTEX
  8
CD_3504
 62
    12
 10
564338
 20
3256263
  0
VERTEX
  8
CD_3504
 62
    12
 10
564539
 20
3256302
  0
VERTEX
  8
CD_3504
 62
    12
 10
564661
 20
3256331
  0
SEQEND
  0
POLYLINE
  8
CD_3504
  6
CONTINUOUS
 62
    12
 66
     1
  0
VERTEX
  8
CD_3504
 62
    12
 10
558422
 20
3255193
  0
VERTEX
  8
CD_3504
 62
    12
 10
558412
 20
3255223
  0
SEQEND
  0
POLYLINE
  8
CD_3504
  6
CONTINUOUS
 62
    12
 66
     1
  0
VERTEX
  8
CD_3504
 62
    12
 10
559322
 20
3254526
  0
VERTEX
  8
CD_3504
 62
    12
 10
560102
 20
3252836
  0
VERTEX
  8
CD_3504
 62
    12
 10
560308
 20
3252226
  0
VERTEX
  8
CD_3504
 62
    12
 10
560396
 20
3251944
  0
SEQEND
  0
POLYLINE
  8
CD_3504
  6
CONTINUOUS
 62
    12
 66
     1
  0
VERTEX
  8
CD_3504
 62
    12
 10
560396
 20
3251944
  0
VERTEX
  8
CD_3504
 62
    12
 10
560927
 20
3250244
  0
VERTEX
  8
CD_3504
 62
    12
 10
561071
 20
3250161
  0
VERTEX
  8
CD_3504
 62
    12
 10
562265
 20
3246135
  0
VERTEX
  8
CD_3504
 62
    12
 10
562498
 20
3245429
  0
VERTEX
  8
CD_3504
 62
    12
 10
562410
 20
3245364
  0
VERTEX
  8
CD_3504
 62
    12
 10
563364
 20
3242186
  0
VERTEX
  8
CD_3504
 62
    12
 10
564515
 20
3240227
  0
VERTEX
  8
CD_3504
 62
    12
 10
564601
 20
3240215
  0
VERTEX
  8
CD_3504
 62
    12
 10
564754
 20
3239905
  0
SEQEND
  0
POLYLINE
  8
CD_3504
  6
CONTINUOUS
 62
    12
 66
     1
  0
VERTEX
  8
CD_3504
 62
    12
 10
560306
 20
3255812
  0
VERTEX
  8
CD_3504
 62
    12
 10
560557
 20
3255850
  0
VERTEX
  8
CD_3504
 62
    12
 10
561006
 20
3255924
  0
SEQEND
  0
POLYLINE
  8
CD_3504
  6
CONTINUOUS
 62
    12
 66
     1
  0
VERTEX
  8
CD_3504
 62
    12
 10
556981
 20
3253849
  0
VERTEX
  8
CD_3504
 62
    12
 10
557024
 20
3253902
  0
VERTEX
  8
CD_3504
 62
    12
 10
557208
 20
3254119
  0
SEQEND
  0
POLYLINE
  8
CD_3504
  6
CONTINUOUS
 62
    12
 66
     1
  0
VERTEX
  8
CD_3504
 62
    12
 10
557470
 20
3253828
  0
VERTEX
  8
CD_3504
 62
    12
 10
557208
 20
3254119
  0
SEQEND
  0
POLYLINE
  8
CD_3504
  6
CONTINUOUS
 62
    12
 66
     1
  0
VERTEX
  8
CD_3504
 62
    12
 10
557208
 20
3254119
  0
VERTEX
  8
CD_3504
 62
    12
 10
557007
 20
3254342
  0
VERTEX
  8
CD_3504
 62
    12
 10
557771
 20
3254794
  0
SEQEND
  0
POLYLINE
  8
CD_3504
  6
CONTINUOUS
 62
    12
 66
     1
  0
VERTEX
  8
CD_3504
 62
    12
 10
536434
 20
3239772
  0
VERTEX
  8
CD_3504
 62
    12
 10
536832
 20
3239802
  0
VERTEX
  8
CD_3504
 62
    12
 10
536945
 20
3239809
  0
VERTEX
  8
CD_3504
 62
    12
 10
537049
 20
3239820
  0
VERTEX
  8
CD_3504
 62
    12
 10
537122
 20
3239823
  0
VERTEX
  8
CD_3504
 62
    12
 10
537132
 20
3239823
  0
VERTEX
  8
CD_3504
 62
    12
 10
537234
 20
3239832
  0
VERTEX
  8
CD_3504
 62
    12
 10
537241
 20
3239836
  0
VERTEX
  8
CD_3504
 62
    12
 10
537334
 20
3239836
  0
VERTEX
  8
CD_3504
 62
    12
 10
537392
 20
3239841
  0
VERTEX
  8
CD_3504
 62
    12
 10
537469
 20
3239913
  0
SEQEND
  0
POLYLINE
  8
CD_3504
  6
CONTINUOUS
 62
    12
 66
     1
  0
VERTEX
  8
CD_3504
 62
    12
 10
536434
 20
3239772
  0
VERTEX
  8
CD_3504
 62
    12
 10
536834
 20
3238599
  0
SEQEND
  0
POLYLINE
  8
CD_3504
  6
CONTINUOUS
 62
    12
 66
     1
  0
VERTEX
  8
CD_3504
 62
    12
 10
559018
 20
3254383
  0
VERTEX
  8
CD_3504
 62
    12
 10
559322
 20
3254526
  0
SEQEND
  0
POLYLINE
  8
CD_3504
  6
CONTINUOUS
 62
    12
 66
     1
  0
VERTEX
  8
CD_3504
 62
    12
 10
559157
 20
3254882
  0
VERTEX
  8
CD_3504
 62
    12
 10
559322
 20
3254526
  0
SEQEND
  0
POLYLINE
  8
CD_3504
  6
CONTINUOUS
 62
    12
 66
     1
  0
VERTEX
  8
CD_3504
 62
    12
 10
534802
 20
3238626
  0
VERTEX
  8
CD_3504
 62
    12
 10
534876
 20
3238679
  0
VERTEX
  8
CD_3504
 62
    12
 10
535135
 20
3238873
  0
VERTEX
  8
CD_3504
 62
    12
 10
535518
 20
3239154
  0
VERTEX
  8
CD_3504
 62
    12
 10
535582
 20
3239197
  0
VERTEX
  8
CD_3504
 62
    12
 10
535595
 20
3239211
  0
VERTEX
  8
CD_3504
 62
    12
 10
536341
 20
3239754
  0
VERTEX
  8
CD_3504
 62
    12
 10
536377
 20
3239768
  0
VERTEX
  8
CD_3504
 62
    12
 10
536434
 20
3239772
  0
SEQEND
  0
POLYLINE
  8
CD_3504
  6
CONTINUOUS
 62
    12
 66
     1
  0
VERTEX
  8
CD_3504
 62
    12
 10
532385
 20
3236745.0001
  0
VERTEX
  8
CD_3504
 62
    12
 10
532739
 20
3237044
  0
VERTEX
  8
CD_3504
 62
    12
 10
532942
 20
3237208
  0
VERTEX
  8
CD_3504
 62
    12
 10
534802
 20
3238626
  0
SEQEND
  0
POLYLINE
  8
CD_3504
  6
CONTINUOUS
 62
    12
 66
     1
  0
VERTEX
  8
CD_3504
 62
    12
 10
535407
 20
3235739.999999
  0
VERTEX
  8
CD_3504
 62
    12
 10
535356
 20
3235819
  0
VERTEX
  8
CD_3504
 62
    12
 10
535304
 20
3235915
  0
VERTEX
  8
CD_3504
 62
    12
 10
535272
 20
3235983
  0
VERTEX
  8
CD_3504
 62
    12
 10
535174
 20
3236180
  0
VERTEX
  8
CD_3504
 62
    12
 10
535164
 20
3236307
  0
VERTEX
  8
CD_3504
 62
    12
 10
535153
 20
3236383
  0
VERTEX
  8
CD_3504
 62
    12
 10
535149
 20
3236448
  0
VERTEX
  8
CD_3504
 62
    12
 10
535153
 20
3236508
  0
VERTEX
  8
CD_3504
 62
    12
 10
535203
 20
3236992
  0
VERTEX
  8
CD_3504
 62
    12
 10
535222
 20
3237174
  0
VERTEX
  8
CD_3504
 62
    12
 10
535241
 20
3237406
  0
VERTEX
  8
CD_3504
 62
    12
 10
535248
 20
3237455
  0
VERTEX
  8
CD_3504
 62
    12
 10
535280
 20
3237813
  0
VERTEX
  8
CD_3504
 62
    12
 10
535291
 20
3237894
  0
VERTEX
  8
CD_3504
 62
    12
 10
535289
 20
3237897
  0
VERTEX
  8
CD_3504
 62
    12
 10
535289
 20
3237939
  0
VERTEX
  8
CD_3504
 62
    12
 10
535293
 20
3237947
  0
VERTEX
  8
CD_3504
 62
    12
 10
535294
 20
3237964
  0
VERTEX
  8
CD_3504
 62
    12
 10
535263
 20
3238005
  0
VERTEX
  8
CD_3504
 62
    12
 10
535219
 20
3238069
  0
VERTEX
  8
CD_3504
 62
    12
 10
535134
 20
3238182
  0
VERTEX
  8
CD_3504
 62
    12
 10
535082
 20
3238240
  0
VERTEX
  8
CD_3504
 62
    12
 10
535055
 20
3238283
  0
VERTEX
  8
CD_3504
 62
    12
 10
534974
 20
3238394
  0
VERTEX
  8
CD_3504
 62
    12
 10
534926
 20
3238451
  0
VERTEX
  8
CD_3504
 62
    12
 10
534802
 20
3238626
  0
SEQEND
  0
POLYLINE
  8
CD_3504
  6
CONTINUOUS
 62
    12
 66
     1
  0
VERTEX
  8
CD_3504
 62
    12
 10
555122
 20
3252018
  0
VERTEX
  8
CD_3504
 62
    12
 10
555140
 20
3252037
  0
VERTEX
  8
CD_3504
 62
    12
 10
555191
 20
3252092
  0
VERTEX
  8
CD_3504
 62
    12
 10
555304
 20
3252202
  0
VERTEX
  8
CD_3504
 62
    12
 10
555390
 20
3252293
  0
VERTEX
  8
CD_3504
 62
    12
 10
555409
 20
3252310
  0
VERTEX
  8
CD_3504
 62
    12
 10
555439
 20
3252335
  0
VERTEX
  8
CD_3504
 62
    12
 10
555495
 20
3252396
  0
VERTEX
  8
CD_3504
 62
    12
 10
555659
 20
3252551
  0
VERTEX
  8
CD_3504
 62
    12
 10
555831
 20
3252729
  0
VERTEX
  8
CD_3504
 62
    12
 10
555999
 20
3252886
  0
VERTEX
  8
CD_3504
 62
    12
 10
556063
 20
3252959
  0
VERTEX
  8
CD_3504
 62
    12
 10
556245
 20
3253135
  0
VERTEX
  8
CD_3504
 62
    12
 10
556385
 20
3253279
  0
VERTEX
  8
CD_3504
 62
    12
 10
556419
 20
3253307
  0
VERTEX
  8
CD_3504
 62
    12
 10
556726
 20
3253608
  0
VERTEX
  8
CD_3504
 62
    12
 10
556917
 20
3253794
  0
VERTEX
  8
CD_3504
 62
    12
 10
556967
 20
3253832
  0
VERTEX
  8
CD_3504
 62
    12
 10
556981
 20
3253849
  0
SEQEND
  0
POLYLINE
  8
CD_3507
  6
CONTINUOUS
 62
    12
 66
     1
  0
VERTEX
  8
CD_3507
 62
    12
 10
532384
 20
3237096
  0
VERTEX
  8
CD_3507
 62
    12
 10
532682
 20
3237217
  0
VERTEX
  8
CD_3507
 62
    12
 10
534188
 20
3238486
  0
VERTEX
  8
CD_3507
 62
    12
 10
535328
 20
3239650
  0
VERTEX
  8
CD_3507
 62
    12
 10
536147
 20
3240475
  0
VERTEX
  8
CD_3507
 62
    12
 10
538349
 20
3241216
  0
VERTEX
  8
CD_3507
 62
    12
 10
538619
 20
3241360
  0
VERTEX
  8
CD_3507
 62
    12
 10
539942
 20
3242815
  0
VERTEX
  8
CD_3507
 62
    12
 10
540464
 20
3243904
  0
VERTEX
  8
CD_3507
 62
    12
 10
542369
 20
3244276
  0
VERTEX
  8
CD_3507
 62
    12
 10
543215
 20
3244282
  0
VERTEX
  8
CD_3507
 62
    12
 10
543686
 20
3244105
  0
VERTEX
  8
CD_3507
 62
    12
 10
543935
 20
3244372
  0
VERTEX
  8
CD_3507
 62
    12
 10
544616
 20
3244270
  0
VERTEX
  8
CD_3507
 62
    12
 10
545432
 20
3244174
  0
VERTEX
  8
CD_3507
 62
    12
 10
546365
 20
3244027
  0
VERTEX
  8
CD_3507
 62
    12
 10
547367
 20
3244401
  0
VERTEX
  8
CD_3507
 62
    12
 10
547534
 20
3244524
  0
SEQEND
  0
POLYLINE
  8
CD_3507
  6
CONTINUOUS
 62
    12
 66
     1
  0
VERTEX
  8
CD_3507
 62
    12
 10
547534
 20
3244524
  0
VERTEX
  8
CD_3507
 62
    12
 10
548144
 20
3244972
  0
VERTEX
  8
CD_3507
 62
    12
 10
548489
 20
3245357
  0
VERTEX
  8
CD_3507
 62
    12
 10
549235
 20
3246742
  0
VERTEX
  8
CD_3507
 62
    12
 10
549694
 20
3246980
  0
VERTEX
  8
CD_3507
 62
    12
 10
550073
 20
3247210
  0
VERTEX
  8
CD_3507
 62
    12
 10
550727
 20
3247828
  0
VERTEX
  8
CD_3507
 62
    12
 10
552383
 20
3249240
  0
VERTEX
  8
CD_3507
 62
    12
 10
553186
 20
3249885
  0
VERTEX
  8
CD_3507
 62
    12
 10
554111
 20
3250774
  0
VERTEX
  8
CD_3507
 62
    12
 10
555068
 20
3251701
  0
VERTEX
  8
CD_3507
 62
    12
 10
556775
 20
3253357
  0
VERTEX
  8
CD_3507
 62
    12
 10
558743
 20
3253921
  0
VERTEX
  8
CD_3507
 62
    12
 10
558632
 20
3254973
  0
SEQEND
  0
ENDSEC
  0
EOF
