  0
SECTION
  2
HEADER
  9
$EXTMIN
 10
532310
 20
3235730
  9
$EXTMAX
 10
564776
 20
3263568
  9
$CECOLOR
 62
     0
  9
$CELTYPE
  6
CONTINUOUS
  9
$TEXTSTYLE
  7
STANDARD
  0
ENDSEC
  0
SECTION
  2
TABLES
  0
TABLE
  2
LTYPE
 70
     1
  0
LTYPE
  2
CONTINUOUS
 70
    64
  3
Solid line
 72
    65
 73
     0
 40
0.0
  0
ENDTAB
  0
TABLE
  2
LAYER
 70
    2
  0
LAYER
  2
DL_3329
 70
   64
 62
56
  6
CONTINUOUS
  0
LAYER
  2
DL_3333
 70
   64
 62
59
  6
CONTINUOUS
  0
ENDTAB
  0
TABLE
  2
STYLE
 70
     0
  0
ENDTAB
  0
ENDSEC
  0
SECTION
  2
BLOCKS
  0
ENDSEC
  0
SECTION
  2
ENTITIES
  0
POLYLINE
  8
DL_3329
  6
CONTINUOUS
 62
    14
 66
     1
  0
VERTEX
  8
DL_3329
 62
    14
 10
563986
 20
3256208
  0
VERTEX
  8
DL_3329
 62
    14
 10
564096
 20
3256208
  0
SEQEND
  0
POLYLINE
  8
DL_3329
  6
CONTINUOUS
 62
    14
 66
     1
  0
VERTEX
  8
DL_3329
 62
    14
 10
563980
 20
3256269
  0
VERTEX
  8
DL_3329
 62
    14
 10
564091
 20
3256269
  0
SEQEND
  0
POLYLINE
  8
DL_3329
  6
CONTINUOUS
 62
    14
 66
     1
  0
VERTEX
  8
DL_3329
 62
    14
 10
563980
 20
3256240
  0
VERTEX
  8
DL_3329
 62
    14
 10
564092
 20
3256240
  0
SEQEND
  0
POLYLINE
  8
DL_3329
  6
CONTINUOUS
 62
    14
 66
     1
  0
VERTEX
  8
DL_3329
 62
    14
 10
563992
 20
3256160
  0
VERTEX
  8
DL_3329
 62
    14
 10
564099
 20
3256164
  0
SEQEND
  0
POLYLINE
  8
DL_3329
  6
CONTINUOUS
 62
    14
 66
     1
  0
VERTEX
  8
DL_3329
 62
    14
 10
564073
 20
3256490
  0
VERTEX
  8
DL_3329
 62
    14
 10
564180
 20
3256491
  0
SEQEND
  0
POLYLINE
  8
DL_3329
  6
CONTINUOUS
 62
    14
 66
     1
  0
VERTEX
  8
DL_3329
 62
    14
 10
564057
 20
3256558
  0
VERTEX
  8
DL_3329
 62
    14
 10
564166
 20
3256560
  0
SEQEND
  0
POLYLINE
  8
DL_3329
  6
CONTINUOUS
 62
    14
 66
     1
  0
VERTEX
  8
DL_3329
 62
    14
 10
564049
 20
3256588
  0
VERTEX
  8
DL_3329
 62
    14
 10
564160
 20
3256590
  0
SEQEND
  0
POLYLINE
  8
DL_3329
  6
CONTINUOUS
 62
    14
 66
     1
  0
VERTEX
  8
DL_3329
 62
    14
 10
564077
 20
3256459
  0
VERTEX
  8
DL_3329
 62
    14
 10
564187
 20
3256462
  0
SEQEND
  0
POLYLINE
  8
DL_3329
  6
CONTINUOUS
 62
    14
 66
     1
  0
VERTEX
  8
DL_3329
 62
    14
 10
564047
 20
3256619
  0
VERTEX
  8
DL_3329
 62
    14
 10
564153
 20
3256620
  0
SEQEND
  0
POLYLINE
  8
DL_3329
  6
CONTINUOUS
 62
    14
 66
     1
  0
VERTEX
  8
DL_3329
 62
    14
 10
564112
 20
3256321
  0
VERTEX
  8
DL_3329
 62
    14
 10
564221
 20
3256319
  0
SEQEND
  0
POLYLINE
  8
DL_3333
  6
CONTINUOUS
 62
    14
 66
     1
  0
VERTEX
  8
DL_3333
 62
    14
 10
555948
 20
3252994
  0
VERTEX
  8
DL_3333
 62
    14
 10
556172
 20
3252999
  0
SEQEND
  0
POLYLINE
  8
DL_3333
  6
CONTINUOUS
 62
    14
 66
     1
  0
VERTEX
  8
DL_3333
 62
    14
 10
556036
 20
3253058
  0
VERTEX
  8
DL_3333
 62
    14
 10
556185
 20
3253062
  0
SEQEND
  0
POLYLINE
  8
DL_3333
  6
CONTINUOUS
 62
    14
 66
     1
  0
VERTEX
  8
DL_3333
 62
    14
 10
555958
 20
3253024
  0
VERTEX
  8
DL_3333
 62
    14
 10
556184
 20
3253031
  0
SEQEND
  0
ENDSEC
  0
EOF
