  0
SECTION
  2
HEADER
  9
$EXTMIN
 10
532310
 20
3235730
  9
$EXTMAX
 10
564776
 20
3263568
  9
$CECOLOR
 62
     0
  9
$CELTYPE
  6
CONTINUOUS
  9
$TEXTSTYLE
  7
STANDARD
  0
ENDSEC
  0
SECTION
  2
TABLES
  0
TABLE
  2
LTYPE
 70
     1
  0
LTYPE
  2
CONTINUOUS
 70
    64
  3
Solid line
 72
    65
 73
     0
 40
0.0
  0
ENDTAB
  0
TABLE
  2
LAYER
 70
    2
  0
LAYER
  2
HA_6291
 70
   64
 62
56
  6
CONTINUOUS
  0
LAYER
  2
HA_6292
 70
   64
 62
59
  6
CONTINUOUS
  0
ENDTAB
  0
TABLE
  2
STYLE
 70
     0
  0
ENDTAB
  0
ENDSEC
  0
SECTION
  2
BLOCKS
  0
ENDSEC
  0
SECTION
  2
ENTITIES
  0
POLYLINE
  8
HA_6291
  6
CONTINUOUS
 62
     4
 66
     1
  0
VERTEX
  8
HA_6291
 62
     4
 10
560141
 20
3242453
  0
VERTEX
  8
HA_6291
 62
     4
 10
560149
 20
3242448
  0
VERTEX
  8
HA_6291
 62
     4
 10
560162
 20
3242444
  0
VERTEX
  8
HA_6291
 62
     4
 10
560178
 20
3242446
  0
VERTEX
  8
HA_6291
 62
     4
 10
560185
 20
3242450
  0
VERTEX
  8
HA_6291
 62
     4
 10
560191
 20
3242453
  0
VERTEX
  8
HA_6291
 62
     4
 10
560191
 20
3242472
  0
VERTEX
  8
HA_6291
 62
     4
 10
560187
 20
3242488
  0
VERTEX
  8
HA_6291
 62
     4
 10
560180
 20
3242497
  0
VERTEX
  8
HA_6291
 62
     4
 10
560170
 20
3242502
  0
VERTEX
  8
HA_6291
 62
     4
 10
560155
 20
3242499
  0
SEQEND
  0
POLYLINE
  8
HA_6291
  6
CONTINUOUS
 62
     4
 66
     1
  0
VERTEX
  8
HA_6291
 62
     4
 10
545963
 20
3237147
  0
VERTEX
  8
HA_6291
 62
     4
 10
545952
 20
3237146
  0
VERTEX
  8
HA_6291
 62
     4
 10
545947
 20
3237140
  0
VERTEX
  8
HA_6291
 62
     4
 10
545944
 20
3237131
  0
VERTEX
  8
HA_6291
 62
     4
 10
545944
 20
3237123
  0
VERTEX
  8
HA_6291
 62
     4
 10
545939
 20
3237113
  0
VERTEX
  8
HA_6291
 62
     4
 10
545932
 20
3237109
  0
VERTEX
  8
HA_6291
 62
     4
 10
545927
 20
3237106
  0
VERTEX
  8
HA_6291
 62
     4
 10
545926
 20
3237097
  0
SEQEND
  0
POLYLINE
  8
HA_6291
  6
CONTINUOUS
 62
     4
 66
     1
  0
VERTEX
  8
HA_6291
 62
     4
 10
563969
 20
3261474
  0
VERTEX
  8
HA_6291
 62
     4
 10
563961
 20
3261480
  0
VERTEX
  8
HA_6291
 62
     4
 10
563949
 20
3261477
  0
VERTEX
  8
HA_6291
 62
     4
 10
563936
 20
3261477
  0
VERTEX
  8
HA_6291
 62
     4
 10
563927
 20
3261476
  0
SEQEND
  0
POLYLINE
  8
HA_6291
  6
CONTINUOUS
 62
     4
 66
     1
  0
VERTEX
  8
HA_6291
 62
     4
 10
564322
 20
3243811
  0
VERTEX
  8
HA_6291
 62
     4
 10
564338
 20
3243810
  0
VERTEX
  8
HA_6291
 62
     4
 10
564355
 20
3243824
  0
VERTEX
  8
HA_6291
 62
     4
 10
564369
 20
3243841
  0
VERTEX
  8
HA_6291
 62
     4
 10
564372
 20
3243860
  0
SEQEND
  0
POLYLINE
  8
HA_6291
  6
CONTINUOUS
 62
     4
 66
     1
  0
VERTEX
  8
HA_6291
 62
     4
 10
553208
 20
3253340
  0
VERTEX
  8
HA_6291
 62
     4
 10
553193
 20
3253332
  0
VERTEX
  8
HA_6291
 62
     4
 10
553180
 20
3253319
  0
VERTEX
  8
HA_6291
 62
     4
 10
553172
 20
3253307
  0
VERTEX
  8
HA_6291
 62
     4
 10
553173
 20
3253301
  0
SEQEND
  0
POLYLINE
  8
HA_6291
  6
CONTINUOUS
 62
     4
 66
     1
  0
VERTEX
  8
HA_6291
 62
     4
 10
550382
 20
3261508
  0
VERTEX
  8
HA_6291
 62
     4
 10
550380
 20
3261544
  0
VERTEX
  8
HA_6291
 62
     4
 10
550372
 20
3261564
  0
VERTEX
  8
HA_6291
 62
     4
 10
550354
 20
3261580
  0
VERTEX
  8
HA_6291
 62
     4
 10
550338
 20
3261592
  0
VERTEX
  8
HA_6291
 62
     4
 10
550320
 20
3261586
  0
VERTEX
  8
HA_6291
 62
     4
 10
550296
 20
3261580
  0
VERTEX
  8
HA_6291
 62
     4
 10
550288
 20
3261573
  0
SEQEND
  0
POLYLINE
  8
HA_6291
  6
CONTINUOUS
 62
     4
 66
     1
  0
VERTEX
  8
HA_6291
 62
     4
 10
551816
 20
3259517
  0
VERTEX
  8
HA_6291
 62
     4
 10
551838
 20
3259502
  0
SEQEND
  0
POLYLINE
  8
HA_6291
  6
CONTINUOUS
 62
     4
 66
     1
  0
VERTEX
  8
HA_6291
 62
     4
 10
551838
 20
3259502
  0
VERTEX
  8
HA_6291
 62
     4
 10
551860
 20
3259495
  0
SEQEND
  0
POLYLINE
  8
HA_6291
  6
CONTINUOUS
 62
     4
 66
     1
  0
VERTEX
  8
HA_6291
 62
     4
 10
545975
 20
3237090
  0
VERTEX
  8
HA_6291
 62
     4
 10
545976
 20
3237096
  0
VERTEX
  8
HA_6291
 62
     4
 10
545978
 20
3237112
  0
VERTEX
  8
HA_6291
 62
     4
 10
545978
 20
3237128
  0
VERTEX
  8
HA_6291
 62
     4
 10
545969
 20
3237142
  0
VERTEX
  8
HA_6291
 62
     4
 10
545963
 20
3237147
  0
SEQEND
  0
POLYLINE
  8
HA_6291
  6
CONTINUOUS
 62
     4
 66
     1
  0
VERTEX
  8
HA_6291
 62
     4
 10
549005
 20
3242699
  0
VERTEX
  8
HA_6291
 62
     4
 10
549015
 20
3242696
  0
VERTEX
  8
HA_6291
 62
     4
 10
549022
 20
3242689
  0
VERTEX
  8
HA_6291
 62
     4
 10
549025
 20
3242671
  0
VERTEX
  8
HA_6291
 62
     4
 10
549023
 20
3242657
  0
SEQEND
  0
POLYLINE
  8
HA_6291
  6
CONTINUOUS
 62
     4
 66
     1
  0
VERTEX
  8
HA_6291
 62
     4
 10
549023
 20
3242657
  0
VERTEX
  8
HA_6291
 62
     4
 10
549015
 20
3242648
  0
VERTEX
  8
HA_6291
 62
     4
 10
549007
 20
3242640
  0
VERTEX
  8
HA_6291
 62
     4
 10
549004
 20
3242626
  0
VERTEX
  8
HA_6291
 62
     4
 10
549004
 20
3242614
  0
VERTEX
  8
HA_6291
 62
     4
 10
549001
 20
3242606
  0
VERTEX
  8
HA_6291
 62
     4
 10
548997
 20
3242600
  0
SEQEND
  0
POLYLINE
  8
HA_6291
  6
CONTINUOUS
 62
     4
 66
     1
  0
VERTEX
  8
HA_6291
 62
     4
 10
564212
 20
3246173
  0
VERTEX
  8
HA_6291
 62
     4
 10
564252
 20
3246166
  0
VERTEX
  8
HA_6291
 62
     4
 10
564269
 20
3246159
  0
VERTEX
  8
HA_6291
 62
     4
 10
564282
 20
3246151
  0
VERTEX
  8
HA_6291
 62
     4
 10
564299
 20
3246136
  0
VERTEX
  8
HA_6291
 62
     4
 10
564297
 20
3246122
  0
VERTEX
  8
HA_6291
 62
     4
 10
564289
 20
3246107
  0
SEQEND
  0
POLYLINE
  8
HA_6291
  6
CONTINUOUS
 62
     4
 66
     1
  0
VERTEX
  8
HA_6291
 62
     4
 10
541232
 20
3248719
  0
VERTEX
  8
HA_6291
 62
     4
 10
541231
 20
3248731
  0
VERTEX
  8
HA_6291
 62
     4
 10
541233
 20
3248739
  0
VERTEX
  8
HA_6291
 62
     4
 10
541240
 20
3248749
  0
VERTEX
  8
HA_6291
 62
     4
 10
541249
 20
3248753
  0
VERTEX
  8
HA_6291
 62
     4
 10
541258
 20
3248761
  0
VERTEX
  8
HA_6291
 62
     4
 10
541258
 20
3248770
  0
VERTEX
  8
HA_6291
 62
     4
 10
541259
 20
3248781
  0
VERTEX
  8
HA_6291
 62
     4
 10
541268
 20
3248786
  0
VERTEX
  8
HA_6291
 62
     4
 10
541278
 20
3248786
  0
SEQEND
  0
POLYLINE
  8
HA_6291
  6
CONTINUOUS
 62
     4
 66
     1
  0
VERTEX
  8
HA_6291
 62
     4
 10
541283
 20
3248702
  0
VERTEX
  8
HA_6291
 62
     4
 10
541312
 20
3248704
  0
SEQEND
  0
POLYLINE
  8
HA_6291
  6
CONTINUOUS
 62
     4
 66
     1
  0
VERTEX
  8
HA_6291
 62
     4
 10
541729
 20
3245098
  0
VERTEX
  8
HA_6291
 62
     4
 10
541750
 20
3245099
  0
SEQEND
  0
POLYLINE
  8
HA_6291
  6
CONTINUOUS
 62
     4
 66
     1
  0
VERTEX
  8
HA_6291
 62
     4
 10
549050
 20
3237810
  0
VERTEX
  8
HA_6291
 62
     4
 10
549081
 20
3237793
  0
SEQEND
  0
POLYLINE
  8
HA_6291
  6
CONTINUOUS
 62
     4
 66
     1
  0
VERTEX
  8
HA_6291
 62
     4
 10
564372
 20
3243860
  0
VERTEX
  8
HA_6291
 62
     4
 10
564367
 20
3243873
  0
VERTEX
  8
HA_6291
 62
     4
 10
564355
 20
3243886
  0
VERTEX
  8
HA_6291
 62
     4
 10
564341
 20
3243895
  0
VERTEX
  8
HA_6291
 62
     4
 10
564323
 20
3243896
  0
VERTEX
  8
HA_6291
 62
     4
 10
564314
 20
3243892
  0
SEQEND
  0
POLYLINE
  8
HA_6291
  6
CONTINUOUS
 62
     4
 66
     1
  0
VERTEX
  8
HA_6291
 62
     4
 10
561635
 20
3254486
  0
VERTEX
  8
HA_6291
 62
     4
 10
561634
 20
3254471
  0
VERTEX
  8
HA_6291
 62
     4
 10
561616
 20
3254467
  0
SEQEND
  0
POLYLINE
  8
HA_6291
  6
CONTINUOUS
 62
     4
 66
     1
  0
VERTEX
  8
HA_6291
 62
     4
 10
558869
 20
3261466
  0
VERTEX
  8
HA_6291
 62
     4
 10
558859
 20
3261473
  0
VERTEX
  8
HA_6291
 62
     4
 10
558842
 20
3261476
  0
VERTEX
  8
HA_6291
 62
     4
 10
558840
 20
3261489
  0
VERTEX
  8
HA_6291
 62
     4
 10
558838
 20
3261504
  0
VERTEX
  8
HA_6291
 62
     4
 10
558831
 20
3261512
  0
VERTEX
  8
HA_6291
 62
     4
 10
558813
 20
3261512
  0
VERTEX
  8
HA_6291
 62
     4
 10
558796
 20
3261504
  0
VERTEX
  8
HA_6291
 62
     4
 10
558782
 20
3261506
  0
VERTEX
  8
HA_6291
 62
     4
 10
558763
 20
3261502
  0
VERTEX
  8
HA_6291
 62
     4
 10
558744
 20
3261495
  0
VERTEX
  8
HA_6291
 62
     4
 10
558735
 20
3261491
  0
VERTEX
  8
HA_6291
 62
     4
 10
558725
 20
3261479
  0
SEQEND
  0
POLYLINE
  8
HA_6291
  6
CONTINUOUS
 62
     4
 66
     1
  0
VERTEX
  8
HA_6291
 62
     4
 10
539192
 20
3262039
  0
VERTEX
  8
HA_6291
 62
     4
 10
539183
 20
3262041
  0
VERTEX
  8
HA_6291
 62
     4
 10
539173
 20
3262035
  0
VERTEX
  8
HA_6291
 62
     4
 10
539159
 20
3262025
  0
VERTEX
  8
HA_6291
 62
     4
 10
539149
 20
3262012
  0
VERTEX
  8
HA_6291
 62
     4
 10
539142
 20
3262002
  0
VERTEX
  8
HA_6291
 62
     4
 10
539140
 20
3262000
  0
VERTEX
  8
HA_6291
 62
     4
 10
539131
 20
3261983
  0
VERTEX
  8
HA_6291
 62
     4
 10
539123
 20
3261966
  0
VERTEX
  8
HA_6291
 62
     4
 10
539116
 20
3261954
  0
VERTEX
  8
HA_6291
 62
     4
 10
539114
 20
3261941
  0
VERTEX
  8
HA_6291
 62
     4
 10
539114
 20
3261929
  0
SEQEND
  0
POLYLINE
  8
HA_6291
  6
CONTINUOUS
 62
     4
 66
     1
  0
VERTEX
  8
HA_6291
 62
     4
 10
545894
 20
3262391
  0
VERTEX
  8
HA_6291
 62
     4
 10
545876
 20
3262384
  0
SEQEND
  0
POLYLINE
  8
HA_6291
  6
CONTINUOUS
 62
     4
 66
     1
  0
VERTEX
  8
HA_6291
 62
     4
 10
558861
 20
3261422
  0
VERTEX
  8
HA_6291
 62
     4
 10
558869
 20
3261433
  0
VERTEX
  8
HA_6291
 62
     4
 10
558877
 20
3261452
  0
VERTEX
  8
HA_6291
 62
     4
 10
558869
 20
3261466
  0
SEQEND
  0
POLYLINE
  8
HA_6291
  6
CONTINUOUS
 62
     4
 66
     1
  0
VERTEX
  8
HA_6291
 62
     4
 10
551858
 20
3259545
  0
VERTEX
  8
HA_6291
 62
     4
 10
551843
 20
3259549
  0
VERTEX
  8
HA_6291
 62
     4
 10
551831
 20
3259543
  0
VERTEX
  8
HA_6291
 62
     4
 10
551827
 20
3259534
  0
VERTEX
  8
HA_6291
 62
     4
 10
551816
 20
3259517
  0
SEQEND
  0
POLYLINE
  8
HA_6291
  6
CONTINUOUS
 62
     4
 66
     1
  0
VERTEX
  8
HA_6291
 62
     4
 10
541052
 20
3248187
  0
VERTEX
  8
HA_6291
 62
     4
 10
541065
 20
3248194
  0
VERTEX
  8
HA_6291
 62
     4
 10
541073
 20
3248205
  0
VERTEX
  8
HA_6291
 62
     4
 10
541075
 20
3248208
  0
VERTEX
  8
HA_6291
 62
     4
 10
541070
 20
3248226
  0
VERTEX
  8
HA_6291
 62
     4
 10
541064
 20
3248240
  0
SEQEND
  0
POLYLINE
  8
HA_6291
  6
CONTINUOUS
 62
     4
 66
     1
  0
VERTEX
  8
HA_6291
 62
     4
 10
548921
 20
3242660
  0
VERTEX
  8
HA_6291
 62
     4
 10
548925
 20
3242650
  0
VERTEX
  8
HA_6291
 62
     4
 10
548928
 20
3242639
  0
VERTEX
  8
HA_6291
 62
     4
 10
548932
 20
3242622
  0
VERTEX
  8
HA_6291
 62
     4
 10
548936
 20
3242611
  0
VERTEX
  8
HA_6291
 62
     4
 10
548942
 20
3242609
  0
VERTEX
  8
HA_6291
 62
     4
 10
548946
 20
3242614
  0
VERTEX
  8
HA_6291
 62
     4
 10
548946
 20
3242621
  0
VERTEX
  8
HA_6291
 62
     4
 10
548942
 20
3242631
  0
VERTEX
  8
HA_6291
 62
     4
 10
548950
 20
3242633
  0
VERTEX
  8
HA_6291
 62
     4
 10
548955
 20
3242628
  0
VERTEX
  8
HA_6291
 62
     4
 10
548963
 20
3242625
  0
VERTEX
  8
HA_6291
 62
     4
 10
548969
 20
3242625
  0
VERTEX
  8
HA_6291
 62
     4
 10
548973
 20
3242619
  0
VERTEX
  8
HA_6291
 62
     4
 10
548984
 20
3242610
  0
VERTEX
  8
HA_6291
 62
     4
 10
548997
 20
3242600
  0
SEQEND
  0
POLYLINE
  8
HA_6291
  6
CONTINUOUS
 62
     4
 66
     1
  0
VERTEX
  8
HA_6291
 62
     4
 10
539191
 20
3248494
  0
VERTEX
  8
HA_6291
 62
     4
 10
539215
 20
3248494
  0
SEQEND
  0
POLYLINE
  8
HA_6291
  6
CONTINUOUS
 62
     4
 66
     1
  0
VERTEX
  8
HA_6291
 62
     4
 10
564289
 20
3246107
  0
VERTEX
  8
HA_6291
 62
     4
 10
564275
 20
3246102
  0
VERTEX
  8
HA_6291
 62
     4
 10
564254
 20
3246105
  0
VERTEX
  8
HA_6291
 62
     4
 10
564228
 20
3246113
  0
VERTEX
  8
HA_6291
 62
     4
 10
564206
 20
3246125
  0
SEQEND
  0
POLYLINE
  8
HA_6291
  6
CONTINUOUS
 62
     4
 66
     1
  0
VERTEX
  8
HA_6291
 62
     4
 10
541278
 20
3248786
  0
VERTEX
  8
HA_6291
 62
     4
 10
541286
 20
3248778
  0
VERTEX
  8
HA_6291
 62
     4
 10
541290
 20
3248760
  0
VERTEX
  8
HA_6291
 62
     4
 10
541293
 20
3248745
  0
VERTEX
  8
HA_6291
 62
     4
 10
541298
 20
3248734
  0
VERTEX
  8
HA_6291
 62
     4
 10
541303
 20
3248718
  0
VERTEX
  8
HA_6291
 62
     4
 10
541312
 20
3248704
  0
SEQEND
  0
POLYLINE
  8
HA_6291
  6
CONTINUOUS
 62
     4
 66
     1
  0
VERTEX
  8
HA_6291
 62
     4
 10
541703
 20
3245096
  0
VERTEX
  8
HA_6291
 62
     4
 10
541729
 20
3245098
  0
SEQEND
  0
POLYLINE
  8
HA_6291
  6
CONTINUOUS
 62
     4
 66
     1
  0
VERTEX
  8
HA_6291
 62
     4
 10
561509
 20
3256739
  0
VERTEX
  8
HA_6291
 62
     4
 10
561530
 20
3256743
  0
VERTEX
  8
HA_6291
 62
     4
 10
561553
 20
3256744
  0
VERTEX
  8
HA_6291
 62
     4
 10
561566
 20
3256740
  0
SEQEND
  0
POLYLINE
  8
HA_6291
  6
CONTINUOUS
 62
     4
 66
     1
  0
VERTEX
  8
HA_6291
 62
     4
 10
551686
 20
3241574
  0
VERTEX
  8
HA_6291
 62
     4
 10
551669
 20
3241571
  0
VERTEX
  8
HA_6291
 62
     4
 10
551654
 20
3241574
  0
VERTEX
  8
HA_6291
 62
     4
 10
551638
 20
3241587
  0
VERTEX
  8
HA_6291
 62
     4
 10
551632
 20
3241607
  0
VERTEX
  8
HA_6291
 62
     4
 10
551631
 20
3241622
  0
SEQEND
  0
POLYLINE
  8
HA_6291
  6
CONTINUOUS
 62
     4
 66
     1
  0
VERTEX
  8
HA_6291
 62
     4
 10
561566
 20
3256740
  0
VERTEX
  8
HA_6291
 62
     4
 10
561583
 20
3256718
  0
VERTEX
  8
HA_6291
 62
     4
 10
561582
 20
3256715
  0
SEQEND
  0
POLYLINE
  8
HA_6291
  6
CONTINUOUS
 62
     4
 66
     1
  0
VERTEX
  8
HA_6291
 62
     4
 10
559602
 20
3243510
  0
VERTEX
  8
HA_6291
 62
     4
 10
559588
 20
3243503
  0
VERTEX
  8
HA_6291
 62
     4
 10
559577
 20
3243495
  0
VERTEX
  8
HA_6291
 62
     4
 10
559562
 20
3243487
  0
VERTEX
  8
HA_6291
 62
     4
 10
559555
 20
3243484
  0
VERTEX
  8
HA_6291
 62
     4
 10
559545
 20
3243470
  0
SEQEND
  0
POLYLINE
  8
HA_6291
  6
CONTINUOUS
 62
     4
 66
     1
  0
VERTEX
  8
HA_6291
 62
     4
 10
541676
 20
3245155
  0
VERTEX
  8
HA_6291
 62
     4
 10
541687
 20
3245173
  0
VERTEX
  8
HA_6291
 62
     4
 10
541702
 20
3245177
  0
VERTEX
  8
HA_6291
 62
     4
 10
541728
 20
3245160
  0
VERTEX
  8
HA_6291
 62
     4
 10
541743
 20
3245139
  0
VERTEX
  8
HA_6291
 62
     4
 10
541750
 20
3245118
  0
VERTEX
  8
HA_6291
 62
     4
 10
541750
 20
3245099
  0
SEQEND
  0
POLYLINE
  8
HA_6291
  6
CONTINUOUS
 62
     4
 66
     1
  0
VERTEX
  8
HA_6291
 62
     4
 10
550288
 20
3261573
  0
VERTEX
  8
HA_6291
 62
     4
 10
550284
 20
3261570
  0
VERTEX
  8
HA_6291
 62
     4
 10
550276
 20
3261555
  0
SEQEND
  0
POLYLINE
  8
HA_6291
  6
CONTINUOUS
 62
     4
 66
     1
  0
VERTEX
  8
HA_6291
 62
     4
 10
555551
 20
3239343
  0
VERTEX
  8
HA_6291
 62
     4
 10
555539
 20
3239355
  0
VERTEX
  8
HA_6291
 62
     4
 10
555526
 20
3239359
  0
VERTEX
  8
HA_6291
 62
     4
 10
555512
 20
3239361
  0
VERTEX
  8
HA_6291
 62
     4
 10
555498
 20
3239360
  0
VERTEX
  8
HA_6291
 62
     4
 10
555490
 20
3239350
  0
SEQEND
  0
POLYLINE
  8
HA_6291
  6
CONTINUOUS
 62
     4
 66
     1
  0
VERTEX
  8
HA_6291
 62
     4
 10
545894
 20
3262391
  0
VERTEX
  8
HA_6291
 62
     4
 10
545889
 20
3262407
  0
VERTEX
  8
HA_6291
 62
     4
 10
545885
 20
3262418
  0
VERTEX
  8
HA_6291
 62
     4
 10
545882
 20
3262431
  0
VERTEX
  8
HA_6291
 62
     4
 10
545883
 20
3262443
  0
VERTEX
  8
HA_6291
 62
     4
 10
545876
 20
3262455
  0
VERTEX
  8
HA_6291
 62
     4
 10
545867
 20
3262457
  0
VERTEX
  8
HA_6291
 62
     4
 10
545859
 20
3262456
  0
SEQEND
  0
POLYLINE
  8
HA_6291
  6
CONTINUOUS
 62
     4
 66
     1
  0
VERTEX
  8
HA_6291
 62
     4
 10
562058
 20
3261694
  0
VERTEX
  8
HA_6291
 62
     4
 10
562054
 20
3261708
  0
VERTEX
  8
HA_6291
 62
     4
 10
562046
 20
3261717
  0
VERTEX
  8
HA_6291
 62
     4
 10
562035
 20
3261717
  0
VERTEX
  8
HA_6291
 62
     4
 10
562019
 20
3261713
  0
VERTEX
  8
HA_6291
 62
     4
 10
562006
 20
3261715
  0
VERTEX
  8
HA_6291
 62
     4
 10
561994
 20
3261715
  0
VERTEX
  8
HA_6291
 62
     4
 10
561988
 20
3261711
  0
VERTEX
  8
HA_6291
 62
     4
 10
561990
 20
3261705
  0
VERTEX
  8
HA_6291
 62
     4
 10
561992
 20
3261689
  0
SEQEND
  0
POLYLINE
  8
HA_6291
  6
CONTINUOUS
 62
     4
 66
     1
  0
VERTEX
  8
HA_6291
 62
     4
 10
551860
 20
3259495
  0
VERTEX
  8
HA_6291
 62
     4
 10
551867
 20
3259521
  0
VERTEX
  8
HA_6291
 62
     4
 10
551863
 20
3259538
  0
VERTEX
  8
HA_6291
 62
     4
 10
551858
 20
3259545
  0
SEQEND
  0
POLYLINE
  8
HA_6291
  6
CONTINUOUS
 62
     4
 66
     1
  0
VERTEX
  8
HA_6291
 62
     4
 10
541052
 20
3248187
  0
VERTEX
  8
HA_6291
 62
     4
 10
541037
 20
3248188
  0
VERTEX
  8
HA_6291
 62
     4
 10
541033
 20
3248201
  0
SEQEND
  0
POLYLINE
  8
HA_6291
  6
CONTINUOUS
 62
     4
 66
     1
  0
VERTEX
  8
HA_6291
 62
     4
 10
539241
 20
3261346
  0
VERTEX
  8
HA_6291
 62
     4
 10
539244
 20
3261336
  0
VERTEX
  8
HA_6291
 62
     4
 10
539243
 20
3261322
  0
VERTEX
  8
HA_6291
 62
     4
 10
539239
 20
3261310
  0
VERTEX
  8
HA_6291
 62
     4
 10
539229
 20
3261294
  0
VERTEX
  8
HA_6291
 62
     4
 10
539218
 20
3261283
  0
VERTEX
  8
HA_6291
 62
     4
 10
539205
 20
3261275
  0
SEQEND
  0
POLYLINE
  8
HA_6291
  6
CONTINUOUS
 62
     4
 66
     1
  0
VERTEX
  8
HA_6291
 62
     4
 10
547159
 20
3237767
  0
VERTEX
  8
HA_6291
 62
     4
 10
547171
 20
3237777
  0
VERTEX
  8
HA_6291
 62
     4
 10
547179
 20
3237778
  0
VERTEX
  8
HA_6291
 62
     4
 10
547187
 20
3237775
  0
VERTEX
  8
HA_6291
 62
     4
 10
547191
 20
3237770
  0
VERTEX
  8
HA_6291
 62
     4
 10
547193
 20
3237758
  0
SEQEND
  0
POLYLINE
  8
HA_6291
  6
CONTINUOUS
 62
     4
 66
     1
  0
VERTEX
  8
HA_6291
 62
     4
 10
544810
 20
3262439
  0
VERTEX
  8
HA_6291
 62
     4
 10
544826
 20
3262449
  0
VERTEX
  8
HA_6291
 62
     4
 10
544842
 20
3262450
  0
VERTEX
  8
HA_6291
 62
     4
 10
544852
 20
3262457
  0
SEQEND
  0
POLYLINE
  8
HA_6291
  6
CONTINUOUS
 62
     4
 66
     1
  0
VERTEX
  8
HA_6291
 62
     4
 10
556282
 20
3240968
  0
VERTEX
  8
HA_6291
 62
     4
 10
556331
 20
3241015
  0
VERTEX
  8
HA_6291
 62
     4
 10
556356
 20
3241049
  0
VERTEX
  8
HA_6291
 62
     4
 10
556355
 20
3241060
  0
VERTEX
  8
HA_6291
 62
     4
 10
556347
 20
3241071
  0
VERTEX
  8
HA_6291
 62
     4
 10
556330
 20
3241083
  0
VERTEX
  8
HA_6291
 62
     4
 10
556311
 20
3241094
  0
VERTEX
  8
HA_6291
 62
     4
 10
556295
 20
3241096
  0
VERTEX
  8
HA_6291
 62
     4
 10
556289
 20
3241057
  0
SEQEND
  0
POLYLINE
  8
HA_6291
  6
CONTINUOUS
 62
     4
 66
     1
  0
VERTEX
  8
HA_6291
 62
     4
 10
547108
 20
3237682
  0
VERTEX
  8
HA_6291
 62
     4
 10
547146
 20
3237699
  0
SEQEND
  0
POLYLINE
  8
HA_6291
  6
CONTINUOUS
 62
     4
 66
     1
  0
VERTEX
  8
HA_6291
 62
     4
 10
547146
 20
3237699
  0
VERTEX
  8
HA_6291
 62
     4
 10
547165
 20
3237723
  0
SEQEND
  0
POLYLINE
  8
HA_6291
  6
CONTINUOUS
 62
     4
 66
     1
  0
VERTEX
  8
HA_6291
 62
     4
 10
536194
 20
3254125
  0
VERTEX
  8
HA_6291
 62
     4
 10
536204
 20
3254142
  0
VERTEX
  8
HA_6291
 62
     4
 10
536219
 20
3254158
  0
VERTEX
  8
HA_6291
 62
     4
 10
536226
 20
3254179
  0
VERTEX
  8
HA_6291
 62
     4
 10
536223
 20
3254200
  0
VERTEX
  8
HA_6291
 62
     4
 10
536214
 20
3254213
  0
VERTEX
  8
HA_6291
 62
     4
 10
536203
 20
3254232
  0
VERTEX
  8
HA_6291
 62
     4
 10
536205
 20
3254243
  0
VERTEX
  8
HA_6291
 62
     4
 10
536211
 20
3254262
  0
VERTEX
  8
HA_6291
 62
     4
 10
536208
 20
3254272
  0
VERTEX
  8
HA_6291
 62
     4
 10
536197
 20
3254277
  0
SEQEND
  0
POLYLINE
  8
HA_6291
  6
CONTINUOUS
 62
     4
 66
     1
  0
VERTEX
  8
HA_6291
 62
     4
 10
542982
 20
3237773
  0
VERTEX
  8
HA_6291
 62
     4
 10
543000
 20
3237750
  0
VERTEX
  8
HA_6291
 62
     4
 10
543000
 20
3237735
  0
VERTEX
  8
HA_6291
 62
     4
 10
542990
 20
3237720
  0
SEQEND
  0
POLYLINE
  8
HA_6291
  6
CONTINUOUS
 62
     4
 66
     1
  0
VERTEX
  8
HA_6291
 62
     4
 10
542990
 20
3237720
  0
VERTEX
  8
HA_6291
 62
     4
 10
542971
 20
3237713
  0
VERTEX
  8
HA_6291
 62
     4
 10
542933
 20
3237737
  0
SEQEND
  0
POLYLINE
  8
HA_6291
  6
CONTINUOUS
 62
     4
 66
     1
  0
VERTEX
  8
HA_6291
 62
     4
 10
555182
 20
3249358
  0
VERTEX
  8
HA_6291
 62
     4
 10
555182
 20
3249409
  0
SEQEND
  0
POLYLINE
  8
HA_6291
  6
CONTINUOUS
 62
     4
 66
     1
  0
VERTEX
  8
HA_6291
 62
     4
 10
542743
 20
3256758
  0
VERTEX
  8
HA_6291
 62
     4
 10
542753
 20
3256747
  0
SEQEND
  0
POLYLINE
  8
HA_6291
  6
CONTINUOUS
 62
     4
 66
     1
  0
VERTEX
  8
HA_6291
 62
     4
 10
541676
 20
3245155
  0
VERTEX
  8
HA_6291
 62
     4
 10
541677
 20
3245131
  0
VERTEX
  8
HA_6291
 62
     4
 10
541703
 20
3245096
  0
SEQEND
  0
POLYLINE
  8
HA_6291
  6
CONTINUOUS
 62
     4
 66
     1
  0
VERTEX
  8
HA_6291
 62
     4
 10
539205
 20
3261275
  0
VERTEX
  8
HA_6291
 62
     4
 10
539196
 20
3261283
  0
VERTEX
  8
HA_6291
 62
     4
 10
539190
 20
3261305
  0
VERTEX
  8
HA_6291
 62
     4
 10
539183
 20
3261333
  0
VERTEX
  8
HA_6291
 62
     4
 10
539187
 20
3261339
  0
SEQEND
  0
POLYLINE
  8
HA_6291
  6
CONTINUOUS
 62
     4
 66
     1
  0
VERTEX
  8
HA_6291
 62
     4
 10
561582
 20
3256715
  0
VERTEX
  8
HA_6291
 62
     4
 10
561578
 20
3256703
  0
VERTEX
  8
HA_6291
 62
     4
 10
561563
 20
3256696
  0
VERTEX
  8
HA_6291
 62
     4
 10
561538
 20
3256691
  0
VERTEX
  8
HA_6291
 62
     4
 10
561519
 20
3256692
  0
VERTEX
  8
HA_6291
 62
     4
 10
561495
 20
3256699
  0
VERTEX
  8
HA_6291
 62
     4
 10
561483
 20
3256710
  0
SEQEND
  0
POLYLINE
  8
HA_6291
  6
CONTINUOUS
 62
     4
 66
     1
  0
VERTEX
  8
HA_6291
 62
     4
 10
561407
 20
3239813
  0
VERTEX
  8
HA_6291
 62
     4
 10
561404
 20
3239826
  0
VERTEX
  8
HA_6291
 62
     4
 10
561396
 20
3239839
  0
VERTEX
  8
HA_6291
 62
     4
 10
561379
 20
3239853
  0
VERTEX
  8
HA_6291
 62
     4
 10
561365
 20
3239856
  0
VERTEX
  8
HA_6291
 62
     4
 10
561351
 20
3239854
  0
SEQEND
  0
POLYLINE
  8
HA_6291
  6
CONTINUOUS
 62
     4
 66
     1
  0
VERTEX
  8
HA_6291
 62
     4
 10
541295
 20
3244788
  0
VERTEX
  8
HA_6291
 62
     4
 10
541385
 20
3244822
  0
SEQEND
  0
POLYLINE
  8
HA_6291
  6
CONTINUOUS
 62
     4
 66
     1
  0
VERTEX
  8
HA_6291
 62
     4
 10
548079
 20
3261212
  0
VERTEX
  8
HA_6291
 62
     4
 10
548074
 20
3261203
  0
VERTEX
  8
HA_6291
 62
     4
 10
548071
 20
3261194
  0
VERTEX
  8
HA_6291
 62
     4
 10
548071
 20
3261186
  0
VERTEX
  8
HA_6291
 62
     4
 10
548078
 20
3261168
  0
SEQEND
  0
POLYLINE
  8
HA_6291
  6
CONTINUOUS
 62
     4
 66
     1
  0
VERTEX
  8
HA_6291
 62
     4
 10
539199
 20
3261913
  0
VERTEX
  8
HA_6291
 62
     4
 10
539201
 20
3261924
  0
VERTEX
  8
HA_6291
 62
     4
 10
539206
 20
3261941
  0
VERTEX
  8
HA_6291
 62
     4
 10
539207
 20
3261949
  0
VERTEX
  8
HA_6291
 62
     4
 10
539214
 20
3261962
  0
VERTEX
  8
HA_6291
 62
     4
 10
539213
 20
3261980
  0
VERTEX
  8
HA_6291
 62
     4
 10
539213
 20
3261983
  0
VERTEX
  8
HA_6291
 62
     4
 10
539211
 20
3261997
  0
VERTEX
  8
HA_6291
 62
     4
 10
539209
 20
3262010
  0
VERTEX
  8
HA_6291
 62
     4
 10
539203
 20
3262033
  0
VERTEX
  8
HA_6291
 62
     4
 10
539192
 20
3262039
  0
SEQEND
  0
POLYLINE
  8
HA_6291
  6
CONTINUOUS
 62
     4
 66
     1
  0
VERTEX
  8
HA_6291
 62
     4
 10
542191
 20
3245385
  0
VERTEX
  8
HA_6291
 62
     4
 10
542204
 20
3245375
  0
SEQEND
  0
POLYLINE
  8
HA_6291
  6
CONTINUOUS
 62
     4
 66
     1
  0
VERTEX
  8
HA_6291
 62
     4
 10
557824
 20
3240527
  0
VERTEX
  8
HA_6291
 62
     4
 10
557846
 20
3240520
  0
VERTEX
  8
HA_6291
 62
     4
 10
557857
 20
3240528
  0
VERTEX
  8
HA_6291
 62
     4
 10
557865
 20
3240541
  0
VERTEX
  8
HA_6291
 62
     4
 10
557870
 20
3240556
  0
SEQEND
  0
POLYLINE
  8
HA_6291
  6
CONTINUOUS
 62
     4
 66
     1
  0
VERTEX
  8
HA_6291
 62
     4
 10
550276
 20
3261555
  0
VERTEX
  8
HA_6291
 62
     4
 10
550278
 20
3261536
  0
VERTEX
  8
HA_6291
 62
     4
 10
550287
 20
3261527
  0
VERTEX
  8
HA_6291
 62
     4
 10
550300
 20
3261522
  0
VERTEX
  8
HA_6291
 62
     4
 10
550303
 20
3261505
  0
VERTEX
  8
HA_6291
 62
     4
 10
550295
 20
3261484
  0
VERTEX
  8
HA_6291
 62
     4
 10
550288
 20
3261468
  0
VERTEX
  8
HA_6291
 62
     4
 10
550284
 20
3261459
  0
SEQEND
  0
POLYLINE
  8
HA_6291
  6
CONTINUOUS
 62
     4
 66
     1
  0
VERTEX
  8
HA_6291
 62
     4
 10
550284
 20
3261459
  0
VERTEX
  8
HA_6291
 62
     4
 10
550287
 20
3261441
  0
SEQEND
  0
POLYLINE
  8
HA_6291
  6
CONTINUOUS
 62
     4
 66
     1
  0
VERTEX
  8
HA_6291
 62
     4
 10
550287
 20
3261441
  0
VERTEX
  8
HA_6291
 62
     4
 10
550298
 20
3261432
  0
SEQEND
  0
POLYLINE
  8
HA_6291
  6
CONTINUOUS
 62
     4
 66
     1
  0
VERTEX
  8
HA_6291
 62
     4
 10
562692
 20
3240784
  0
VERTEX
  8
HA_6291
 62
     4
 10
562681
 20
3240790
  0
VERTEX
  8
HA_6291
 62
     4
 10
562670
 20
3240787
  0
VERTEX
  8
HA_6291
 62
     4
 10
562656
 20
3240781
  0
VERTEX
  8
HA_6291
 62
     4
 10
562649
 20
3240777
  0
VERTEX
  8
HA_6291
 62
     4
 10
562642
 20
3240768
  0
VERTEX
  8
HA_6291
 62
     4
 10
562644
 20
3240749
  0
SEQEND
  0
POLYLINE
  8
HA_6291
  6
CONTINUOUS
 62
     4
 66
     1
  0
VERTEX
  8
HA_6291
 62
     4
 10
564590
 20
3237700
  0
VERTEX
  8
HA_6291
 62
     4
 10
564595
 20
3237712
  0
VERTEX
  8
HA_6291
 62
     4
 10
564595
 20
3237727
  0
VERTEX
  8
HA_6291
 62
     4
 10
564579
 20
3237738
  0
VERTEX
  8
HA_6291
 62
     4
 10
564566
 20
3237743
  0
VERTEX
  8
HA_6291
 62
     4
 10
564554
 20
3237744
  0
VERTEX
  8
HA_6291
 62
     4
 10
564541
 20
3237736
  0
SEQEND
  0
POLYLINE
  8
HA_6291
  6
CONTINUOUS
 62
     4
 66
     1
  0
VERTEX
  8
HA_6291
 62
     4
 10
549822
 20
3244720
  0
VERTEX
  8
HA_6291
 62
     4
 10
549810
 20
3244699
  0
SEQEND
  0
POLYLINE
  8
HA_6291
  6
CONTINUOUS
 62
     4
 66
     1
  0
VERTEX
  8
HA_6291
 62
     4
 10
542810
 20
3250978
  0
VERTEX
  8
HA_6291
 62
     4
 10
542830
 20
3250999
  0
SEQEND
  0
POLYLINE
  8
HA_6291
  6
CONTINUOUS
 62
     4
 66
     1
  0
VERTEX
  8
HA_6291
 62
     4
 10
557824
 20
3240527
  0
VERTEX
  8
HA_6291
 62
     4
 10
557821
 20
3240559
  0
SEQEND
  0
POLYLINE
  8
HA_6291
  6
CONTINUOUS
 62
     4
 66
     1
  0
VERTEX
  8
HA_6291
 62
     4
 10
549810
 20
3244699
  0
VERTEX
  8
HA_6291
 62
     4
 10
549814
 20
3244696
  0
VERTEX
  8
HA_6291
 62
     4
 10
549825
 20
3244696
  0
VERTEX
  8
HA_6291
 62
     4
 10
549841
 20
3244692
  0
VERTEX
  8
HA_6291
 62
     4
 10
549851
 20
3244688
  0
VERTEX
  8
HA_6291
 62
     4
 10
549864
 20
3244684
  0
VERTEX
  8
HA_6291
 62
     4
 10
549875
 20
3244685
  0
VERTEX
  8
HA_6291
 62
     4
 10
549881
 20
3244689
  0
SEQEND
  0
POLYLINE
  8
HA_6291
  6
CONTINUOUS
 62
     4
 66
     1
  0
VERTEX
  8
HA_6291
 62
     4
 10
545853
 20
3262380
  0
VERTEX
  8
HA_6291
 62
     4
 10
545876
 20
3262384
  0
SEQEND
  0
POLYLINE
  8
HA_6291
  6
CONTINUOUS
 62
     4
 66
     1
  0
VERTEX
  8
HA_6291
 62
     4
 10
537717
 20
3253732
  0
VERTEX
  8
HA_6291
 62
     4
 10
537731
 20
3253727
  0
VERTEX
  8
HA_6291
 62
     4
 10
537735
 20
3253718
  0
VERTEX
  8
HA_6291
 62
     4
 10
537733
 20
3253700
  0
VERTEX
  8
HA_6291
 62
     4
 10
537730
 20
3253682
  0
VERTEX
  8
HA_6291
 62
     4
 10
537726
 20
3253664
  0
VERTEX
  8
HA_6291
 62
     4
 10
537719
 20
3253653
  0
VERTEX
  8
HA_6291
 62
     4
 10
537707
 20
3253646
  0
SEQEND
  0
POLYLINE
  8
HA_6291
  6
CONTINUOUS
 62
     4
 66
     1
  0
VERTEX
  8
HA_6291
 62
     4
 10
553952
 20
3253707
  0
VERTEX
  8
HA_6291
 62
     4
 10
553972
 20
3253722
  0
VERTEX
  8
HA_6291
 62
     4
 10
553970
 20
3253759
  0
VERTEX
  8
HA_6291
 62
     4
 10
553966
 20
3253784
  0
SEQEND
  0
POLYLINE
  8
HA_6291
  6
CONTINUOUS
 62
     4
 66
     1
  0
VERTEX
  8
HA_6291
 62
     4
 10
553747
 20
3253437
  0
VERTEX
  8
HA_6291
 62
     4
 10
553762
 20
3253447
  0
VERTEX
  8
HA_6291
 62
     4
 10
553791
 20
3253466
  0
VERTEX
  8
HA_6291
 62
     4
 10
553808
 20
3253484
  0
VERTEX
  8
HA_6291
 62
     4
 10
553828
 20
3253526
  0
VERTEX
  8
HA_6291
 62
     4
 10
553845
 20
3253556
  0
VERTEX
  8
HA_6291
 62
     4
 10
553885
 20
3253621
  0
VERTEX
  8
HA_6291
 62
     4
 10
553912
 20
3253671
  0
VERTEX
  8
HA_6291
 62
     4
 10
553931
 20
3253693
  0
VERTEX
  8
HA_6291
 62
     4
 10
553952
 20
3253707
  0
SEQEND
  0
POLYLINE
  8
HA_6291
  6
CONTINUOUS
 62
     4
 66
     1
  0
VERTEX
  8
HA_6291
 62
     4
 10
541295
 20
3244788
  0
VERTEX
  8
HA_6291
 62
     4
 10
541301
 20
3244808
  0
SEQEND
  0
POLYLINE
  8
HA_6291
  6
CONTINUOUS
 62
     4
 66
     1
  0
VERTEX
  8
HA_6291
 62
     4
 10
564512
 20
3249559
  0
VERTEX
  8
HA_6291
 62
     4
 10
564512
 20
3249552
  0
VERTEX
  8
HA_6291
 62
     4
 10
564499
 20
3249546
  0
VERTEX
  8
HA_6291
 62
     4
 10
564483
 20
3249550
  0
VERTEX
  8
HA_6291
 62
     4
 10
564473
 20
3249558
  0
SEQEND
  0
POLYLINE
  8
HA_6291
  6
CONTINUOUS
 62
     4
 66
     1
  0
VERTEX
  8
HA_6291
 62
     4
 10
542794
 20
3251014
  0
VERTEX
  8
HA_6291
 62
     4
 10
542797
 20
3251032
  0
VERTEX
  8
HA_6291
 62
     4
 10
542807
 20
3251036
  0
SEQEND
  0
POLYLINE
  8
HA_6291
  6
CONTINUOUS
 62
     4
 66
     1
  0
VERTEX
  8
HA_6291
 62
     4
 10
561317
 20
3239785
  0
VERTEX
  8
HA_6291
 62
     4
 10
561336
 20
3239782
  0
VERTEX
  8
HA_6291
 62
     4
 10
561357
 20
3239787
  0
VERTEX
  8
HA_6291
 62
     4
 10
561379
 20
3239791
  0
VERTEX
  8
HA_6291
 62
     4
 10
561398
 20
3239801
  0
VERTEX
  8
HA_6291
 62
     4
 10
561407
 20
3239813
  0
SEQEND
  0
POLYLINE
  8
HA_6291
  6
CONTINUOUS
 62
     4
 66
     1
  0
VERTEX
  8
HA_6291
 62
     4
 10
547165
 20
3237723
  0
VERTEX
  8
HA_6291
 62
     4
 10
547193
 20
3237758
  0
SEQEND
  0
POLYLINE
  8
HA_6291
  6
CONTINUOUS
 62
     4
 66
     1
  0
VERTEX
  8
HA_6291
 62
     4
 10
559646
 20
3243448
  0
VERTEX
  8
HA_6291
 62
     4
 10
559652
 20
3243461
  0
VERTEX
  8
HA_6291
 62
     4
 10
559650
 20
3243478
  0
VERTEX
  8
HA_6291
 62
     4
 10
559641
 20
3243493
  0
VERTEX
  8
HA_6291
 62
     4
 10
559628
 20
3243502
  0
VERTEX
  8
HA_6291
 62
     4
 10
559616
 20
3243509
  0
VERTEX
  8
HA_6291
 62
     4
 10
559602
 20
3243510
  0
SEQEND
  0
POLYLINE
  8
HA_6291
  6
CONTINUOUS
 62
     4
 66
     1
  0
VERTEX
  8
HA_6291
 62
     4
 10
556508
 20
3239628
  0
VERTEX
  8
HA_6291
 62
     4
 10
556528
 20
3239620
  0
VERTEX
  8
HA_6291
 62
     4
 10
556541
 20
3239606
  0
VERTEX
  8
HA_6291
 62
     4
 10
556554
 20
3239590
  0
VERTEX
  8
HA_6291
 62
     4
 10
556554
 20
3239577
  0
VERTEX
  8
HA_6291
 62
     4
 10
556556
 20
3239565
  0
SEQEND
  0
POLYLINE
  8
HA_6291
  6
CONTINUOUS
 62
     4
 66
     1
  0
VERTEX
  8
HA_6291
 62
     4
 10
562405
 20
3262411
  0
VERTEX
  8
HA_6291
 62
     4
 10
562419
 20
3262436
  0
SEQEND
  0
POLYLINE
  8
HA_6291
  6
CONTINUOUS
 62
     4
 66
     1
  0
VERTEX
  8
HA_6291
 62
     4
 10
542962
 20
3237786
  0
VERTEX
  8
HA_6291
 62
     4
 10
542982
 20
3237773
  0
SEQEND
  0
POLYLINE
  8
HA_6291
  6
CONTINUOUS
 62
     4
 66
     1
  0
VERTEX
  8
HA_6291
 62
     4
 10
542710
 20
3256745
  0
VERTEX
  8
HA_6291
 62
     4
 10
542715
 20
3256755
  0
VERTEX
  8
HA_6291
 62
     4
 10
542721
 20
3256759
  0
VERTEX
  8
HA_6291
 62
     4
 10
542733
 20
3256762
  0
VERTEX
  8
HA_6291
 62
     4
 10
542743
 20
3256758
  0
SEQEND
  0
POLYLINE
  8
HA_6291
  6
CONTINUOUS
 62
     4
 66
     1
  0
VERTEX
  8
HA_6291
 62
     4
 10
561483
 20
3256710
  0
VERTEX
  8
HA_6291
 62
     4
 10
561491
 20
3256731
  0
VERTEX
  8
HA_6291
 62
     4
 10
561509
 20
3256739
  0
SEQEND
  0
POLYLINE
  8
HA_6291
  6
CONTINUOUS
 62
     4
 66
     1
  0
VERTEX
  8
HA_6291
 62
     4
 10
555209
 20
3249320
  0
VERTEX
  8
HA_6291
 62
     4
 10
555217
 20
3249334
  0
VERTEX
  8
HA_6291
 62
     4
 10
555226
 20
3249356
  0
VERTEX
  8
HA_6291
 62
     4
 10
555228
 20
3249375
  0
VERTEX
  8
HA_6291
 62
     4
 10
555227
 20
3249395
  0
VERTEX
  8
HA_6291
 62
     4
 10
555217
 20
3249408
  0
VERTEX
  8
HA_6291
 62
     4
 10
555203
 20
3249415
  0
VERTEX
  8
HA_6291
 62
     4
 10
555192
 20
3249414
  0
VERTEX
  8
HA_6291
 62
     4
 10
555182
 20
3249409
  0
SEQEND
  0
POLYLINE
  8
HA_6291
  6
CONTINUOUS
 62
     4
 66
     1
  0
VERTEX
  8
HA_6291
 62
     4
 10
551631
 20
3241622
  0
VERTEX
  8
HA_6291
 62
     4
 10
551674
 20
3241624
  0
SEQEND
  0
POLYLINE
  8
HA_6291
  6
CONTINUOUS
 62
     4
 66
     1
  0
VERTEX
  8
HA_6291
 62
     4
 10
563000
 20
3245064
  0
VERTEX
  8
HA_6291
 62
     4
 10
562994
 20
3245076
  0
VERTEX
  8
HA_6291
 62
     4
 10
562979
 20
3245088
  0
VERTEX
  8
HA_6291
 62
     4
 10
562965
 20
3245088
  0
VERTEX
  8
HA_6291
 62
     4
 10
562946
 20
3245081
  0
VERTEX
  8
HA_6291
 62
     4
 10
562933
 20
3245069
  0
VERTEX
  8
HA_6291
 62
     4
 10
562929
 20
3245059
  0
VERTEX
  8
HA_6291
 62
     4
 10
562925
 20
3245051
  0
SEQEND
  0
POLYLINE
  8
HA_6291
  6
CONTINUOUS
 62
     4
 66
     1
  0
VERTEX
  8
HA_6291
 62
     4
 10
562986
 20
3245032
  0
VERTEX
  8
HA_6291
 62
     4
 10
563000
 20
3245039
  0
VERTEX
  8
HA_6291
 62
     4
 10
563005
 20
3245050
  0
VERTEX
  8
HA_6291
 62
     4
 10
563000
 20
3245064
  0
SEQEND
  0
POLYLINE
  8
HA_6291
  6
CONTINUOUS
 62
     4
 66
     1
  0
VERTEX
  8
HA_6291
 62
     4
 10
549048
 20
3237748
  0
VERTEX
  8
HA_6291
 62
     4
 10
549048
 20
3237770
  0
VERTEX
  8
HA_6291
 62
     4
 10
549046
 20
3237791
  0
VERTEX
  8
HA_6291
 62
     4
 10
549044
 20
3237802
  0
VERTEX
  8
HA_6291
 62
     4
 10
549050
 20
3237810
  0
SEQEND
  0
POLYLINE
  8
HA_6291
  6
CONTINUOUS
 62
     4
 66
     1
  0
VERTEX
  8
HA_6291
 62
     4
 10
539242
 20
3248509
  0
VERTEX
  8
HA_6291
 62
     4
 10
539242
 20
3248594
  0
VERTEX
  8
HA_6291
 62
     4
 10
539237
 20
3248615
  0
SEQEND
  0
POLYLINE
  8
HA_6291
  6
CONTINUOUS
 62
     4
 66
     1
  0
VERTEX
  8
HA_6291
 62
     4
 10
564206
 20
3246125
  0
VERTEX
  8
HA_6291
 62
     4
 10
564206
 20
3246140
  0
SEQEND
  0
POLYLINE
  8
HA_6291
  6
CONTINUOUS
 62
     4
 66
     1
  0
VERTEX
  8
HA_6291
 62
     4
 10
557710
 20
3251288
  0
VERTEX
  8
HA_6291
 62
     4
 10
557725
 20
3251272
  0
VERTEX
  8
HA_6291
 62
     4
 10
557739
 20
3251250
  0
VERTEX
  8
HA_6291
 62
     4
 10
557735
 20
3251229
  0
VERTEX
  8
HA_6291
 62
     4
 10
557736
 20
3251214
  0
SEQEND
  0
POLYLINE
  8
HA_6291
  6
CONTINUOUS
 62
     4
 66
     1
  0
VERTEX
  8
HA_6291
 62
     4
 10
561204
 20
3252333
  0
VERTEX
  8
HA_6291
 62
     4
 10
561194
 20
3252313
  0
VERTEX
  8
HA_6291
 62
     4
 10
561183
 20
3252302
  0
VERTEX
  8
HA_6291
 62
     4
 10
561172
 20
3252298
  0
SEQEND
  0
POLYLINE
  8
HA_6291
  6
CONTINUOUS
 62
     4
 66
     1
  0
VERTEX
  8
HA_6291
 62
     4
 10
562681
 20
3240731
  0
VERTEX
  8
HA_6291
 62
     4
 10
562693
 20
3240733
  0
VERTEX
  8
HA_6291
 62
     4
 10
562704
 20
3240749
  0
VERTEX
  8
HA_6291
 62
     4
 10
562702
 20
3240768
  0
VERTEX
  8
HA_6291
 62
     4
 10
562692
 20
3240784
  0
SEQEND
  0
POLYLINE
  8
HA_6291
  6
CONTINUOUS
 62
     4
 66
     1
  0
VERTEX
  8
HA_6291
 62
     4
 10
562380
 20
3246227
  0
VERTEX
  8
HA_6291
 62
     4
 10
562404
 20
3246230
  0
SEQEND
  0
POLYLINE
  8
HA_6291
  6
CONTINUOUS
 62
     4
 66
     1
  0
VERTEX
  8
HA_6291
 62
     4
 10
562342
 20
3246226
  0
VERTEX
  8
HA_6291
 62
     4
 10
562380
 20
3246227
  0
SEQEND
  0
POLYLINE
  8
HA_6291
  6
CONTINUOUS
 62
     4
 66
     1
  0
VERTEX
  8
HA_6291
 62
     4
 10
543211
 20
3245336
  0
VERTEX
  8
HA_6291
 62
     4
 10
543211
 20
3245354
  0
VERTEX
  8
HA_6291
 62
     4
 10
543202
 20
3245367
  0
VERTEX
  8
HA_6291
 62
     4
 10
543182
 20
3245374
  0
SEQEND
  0
POLYLINE
  8
HA_6291
  6
CONTINUOUS
 62
     4
 66
     1
  0
VERTEX
  8
HA_6291
 62
     4
 10
563520
 20
3248561
  0
VERTEX
  8
HA_6291
 62
     4
 10
563523
 20
3248544
  0
VERTEX
  8
HA_6291
 62
     4
 10
563522
 20
3248532
  0
VERTEX
  8
HA_6291
 62
     4
 10
563517
 20
3248531
  0
SEQEND
  0
POLYLINE
  8
HA_6291
  6
CONTINUOUS
 62
     4
 66
     1
  0
VERTEX
  8
HA_6291
 62
     4
 10
556556
 20
3239565
  0
VERTEX
  8
HA_6291
 62
     4
 10
556551
 20
3239556
  0
VERTEX
  8
HA_6291
 62
     4
 10
556535
 20
3239550
  0
VERTEX
  8
HA_6291
 62
     4
 10
556518
 20
3239545
  0
VERTEX
  8
HA_6291
 62
     4
 10
556495
 20
3239539
  0
VERTEX
  8
HA_6291
 62
     4
 10
556472
 20
3239534
  0
VERTEX
  8
HA_6291
 62
     4
 10
556451
 20
3239536
  0
VERTEX
  8
HA_6291
 62
     4
 10
556445
 20
3239544
  0
SEQEND
  0
POLYLINE
  8
HA_6291
  6
CONTINUOUS
 62
     4
 66
     1
  0
VERTEX
  8
HA_6291
 62
     4
 10
537964
 20
3249864
  0
VERTEX
  8
HA_6291
 62
     4
 10
537975
 20
3249880
  0
VERTEX
  8
HA_6291
 62
     4
 10
537992
 20
3249894
  0
VERTEX
  8
HA_6291
 62
     4
 10
538013
 20
3249901
  0
VERTEX
  8
HA_6291
 62
     4
 10
538043
 20
3249909
  0
SEQEND
  0
POLYLINE
  8
HA_6291
  6
CONTINUOUS
 62
     4
 66
     1
  0
VERTEX
  8
HA_6291
 62
     4
 10
562658
 20
3240743
  0
VERTEX
  8
HA_6291
 62
     4
 10
562681
 20
3240731
  0
SEQEND
  0
POLYLINE
  8
HA_6291
  6
CONTINUOUS
 62
     4
 66
     1
  0
VERTEX
  8
HA_6291
 62
     4
 10
557190
 20
3248659
  0
VERTEX
  8
HA_6291
 62
     4
 10
557196
 20
3248647
  0
VERTEX
  8
HA_6291
 62
     4
 10
557198
 20
3248636
  0
VERTEX
  8
HA_6291
 62
     4
 10
557197
 20
3248621
  0
SEQEND
  0
POLYLINE
  8
HA_6291
  6
CONTINUOUS
 62
     4
 66
     1
  0
VERTEX
  8
HA_6291
 62
     4
 10
548078
 20
3261168
  0
VERTEX
  8
HA_6291
 62
     4
 10
548114
 20
3261169
  0
SEQEND
  0
POLYLINE
  8
HA_6291
  6
CONTINUOUS
 62
     4
 66
     1
  0
VERTEX
  8
HA_6291
 62
     4
 10
552956
 20
3252672
  0
VERTEX
  8
HA_6291
 62
     4
 10
552958
 20
3252691
  0
VERTEX
  8
HA_6291
 62
     4
 10
552962
 20
3252774
  0
VERTEX
  8
HA_6291
 62
     4
 10
552968
 20
3252832
  0
VERTEX
  8
HA_6291
 62
     4
 10
552968
 20
3252839
  0
VERTEX
  8
HA_6291
 62
     4
 10
552983
 20
3252908
  0
VERTEX
  8
HA_6291
 62
     4
 10
553006
 20
3252974
  0
VERTEX
  8
HA_6291
 62
     4
 10
553027
 20
3253033
  0
VERTEX
  8
HA_6291
 62
     4
 10
553031
 20
3253044
  0
VERTEX
  8
HA_6291
 62
     4
 10
553025
 20
3253061
  0
SEQEND
  0
POLYLINE
  8
HA_6291
  6
CONTINUOUS
 62
     4
 66
     1
  0
VERTEX
  8
HA_6291
 62
     4
 10
542174
 20
3245397
  0
VERTEX
  8
HA_6291
 62
     4
 10
542191
 20
3245385
  0
SEQEND
  0
POLYLINE
  8
HA_6291
  6
CONTINUOUS
 62
     4
 66
     1
  0
VERTEX
  8
HA_6291
 62
     4
 10
561568
 20
3254439
  0
VERTEX
  8
HA_6291
 62
     4
 10
561556
 20
3254434
  0
VERTEX
  8
HA_6291
 62
     4
 10
561538
 20
3254427
  0
VERTEX
  8
HA_6291
 62
     4
 10
561530
 20
3254427
  0
VERTEX
  8
HA_6291
 62
     4
 10
561520
 20
3254432
  0
SEQEND
  0
POLYLINE
  8
HA_6291
  6
CONTINUOUS
 62
     4
 66
     1
  0
VERTEX
  8
HA_6291
 62
     4
 10
561616
 20
3254467
  0
VERTEX
  8
HA_6291
 62
     4
 10
561597
 20
3254462
  0
VERTEX
  8
HA_6291
 62
     4
 10
561584
 20
3254454
  0
VERTEX
  8
HA_6291
 62
     4
 10
561568
 20
3254439
  0
SEQEND
  0
POLYLINE
  8
HA_6291
  6
CONTINUOUS
 62
     4
 66
     1
  0
VERTEX
  8
HA_6291
 62
     4
 10
553877
 20
3253662
  0
VERTEX
  8
HA_6291
 62
     4
 10
553843
 20
3253609
  0
VERTEX
  8
HA_6291
 62
     4
 10
553803
 20
3253567
  0
VERTEX
  8
HA_6291
 62
     4
 10
553766
 20
3253505
  0
VERTEX
  8
HA_6291
 62
     4
 10
553743
 20
3253470
  0
VERTEX
  8
HA_6291
 62
     4
 10
553711
 20
3253445
  0
VERTEX
  8
HA_6291
 62
     4
 10
553661
 20
3253411
  0
VERTEX
  8
HA_6291
 62
     4
 10
553606
 20
3253377
  0
VERTEX
  8
HA_6291
 62
     4
 10
553581
 20
3253368
  0
VERTEX
  8
HA_6291
 62
     4
 10
553560
 20
3253363
  0
VERTEX
  8
HA_6291
 62
     4
 10
553514
 20
3253366
  0
VERTEX
  8
HA_6291
 62
     4
 10
553478
 20
3253363
  0
VERTEX
  8
HA_6291
 62
     4
 10
553364
 20
3253363
  0
VERTEX
  8
HA_6291
 62
     4
 10
553334
 20
3253366
  0
VERTEX
  8
HA_6291
 62
     4
 10
553286
 20
3253369
  0
VERTEX
  8
HA_6291
 62
     4
 10
553254
 20
3253363
  0
VERTEX
  8
HA_6291
 62
     4
 10
553220
 20
3253347
  0
VERTEX
  8
HA_6291
 62
     4
 10
553208
 20
3253340
  0
SEQEND
  0
POLYLINE
  8
HA_6291
  6
CONTINUOUS
 62
     4
 66
     1
  0
VERTEX
  8
HA_6291
 62
     4
 10
562644
 20
3240749
  0
VERTEX
  8
HA_6291
 62
     4
 10
562658
 20
3240743
  0
SEQEND
  0
POLYLINE
  8
HA_6291
  6
CONTINUOUS
 62
     4
 66
     1
  0
VERTEX
  8
HA_6291
 62
     4
 10
555490
 20
3239350
  0
VERTEX
  8
HA_6291
 62
     4
 10
555505
 20
3239328
  0
SEQEND
  0
POLYLINE
  8
HA_6291
  6
CONTINUOUS
 62
     4
 66
     1
  0
VERTEX
  8
HA_6291
 62
     4
 10
542830
 20
3250999
  0
VERTEX
  8
HA_6291
 62
     4
 10
542853
 20
3251022
  0
SEQEND
  0
POLYLINE
  8
HA_6291
  6
CONTINUOUS
 62
     4
 66
     1
  0
VERTEX
  8
HA_6291
 62
     4
 10
557197
 20
3248621
  0
VERTEX
  8
HA_6291
 62
     4
 10
557187
 20
3248612
  0
VERTEX
  8
HA_6291
 62
     4
 10
557167
 20
3248606
  0
VERTEX
  8
HA_6291
 62
     4
 10
557153
 20
3248609
  0
VERTEX
  8
HA_6291
 62
     4
 10
557145
 20
3248613
  0
SEQEND
  0
POLYLINE
  8
HA_6291
  6
CONTINUOUS
 62
     4
 66
     1
  0
VERTEX
  8
HA_6291
 62
     4
 10
549832
 20
3244737
  0
VERTEX
  8
HA_6291
 62
     4
 10
549853
 20
3244736
  0
VERTEX
  8
HA_6291
 62
     4
 10
549868
 20
3244728
  0
VERTEX
  8
HA_6291
 62
     4
 10
549878
 20
3244715
  0
VERTEX
  8
HA_6291
 62
     4
 10
549882
 20
3244700
  0
VERTEX
  8
HA_6291
 62
     4
 10
549881
 20
3244689
  0
SEQEND
  0
POLYLINE
  8
HA_6291
  6
CONTINUOUS
 62
     4
 66
     1
  0
VERTEX
  8
HA_6291
 62
     4
 10
557398
 20
3246978
  0
VERTEX
  8
HA_6291
 62
     4
 10
557393
 20
3246967
  0
VERTEX
  8
HA_6291
 62
     4
 10
557395
 20
3246954
  0
VERTEX
  8
HA_6291
 62
     4
 10
557400
 20
3246939
  0
VERTEX
  8
HA_6291
 62
     4
 10
557406
 20
3246930
  0
VERTEX
  8
HA_6291
 62
     4
 10
557420
 20
3246927
  0
VERTEX
  8
HA_6291
 62
     4
 10
557432
 20
3246931
  0
VERTEX
  8
HA_6291
 62
     4
 10
557442
 20
3246940
  0
VERTEX
  8
HA_6291
 62
     4
 10
557449
 20
3246946
  0
VERTEX
  8
HA_6291
 62
     4
 10
557450
 20
3246958
  0
SEQEND
  0
POLYLINE
  8
HA_6291
  6
CONTINUOUS
 62
     4
 66
     1
  0
VERTEX
  8
HA_6291
 62
     4
 10
541301
 20
3244808
  0
VERTEX
  8
HA_6291
 62
     4
 10
541314
 20
3244817
  0
VERTEX
  8
HA_6291
 62
     4
 10
541343
 20
3244832
  0
VERTEX
  8
HA_6291
 62
     4
 10
541363
 20
3244835
  0
VERTEX
  8
HA_6291
 62
     4
 10
541375
 20
3244832
  0
VERTEX
  8
HA_6291
 62
     4
 10
541385
 20
3244822
  0
SEQEND
  0
POLYLINE
  8
HA_6291
  6
CONTINUOUS
 62
     4
 66
     1
  0
VERTEX
  8
HA_6291
 62
     4
 10
534221
 20
3251497
  0
VERTEX
  8
HA_6291
 62
     4
 10
534211
 20
3251504
  0
VERTEX
  8
HA_6291
 62
     4
 10
534201
 20
3251506
  0
VERTEX
  8
HA_6291
 62
     4
 10
534190
 20
3251502
  0
VERTEX
  8
HA_6291
 62
     4
 10
534184
 20
3251490
  0
VERTEX
  8
HA_6291
 62
     4
 10
534180
 20
3251475
  0
VERTEX
  8
HA_6291
 62
     4
 10
534176
 20
3251461
  0
VERTEX
  8
HA_6291
 62
     4
 10
534171
 20
3251452
  0
VERTEX
  8
HA_6291
 62
     4
 10
534167
 20
3251441
  0
VERTEX
  8
HA_6291
 62
     4
 10
534165
 20
3251430
  0
SEQEND
  0
POLYLINE
  8
HA_6291
  6
CONTINUOUS
 62
     4
 66
     1
  0
VERTEX
  8
HA_6291
 62
     4
 10
547083
 20
3237695
  0
VERTEX
  8
HA_6291
 62
     4
 10
547079
 20
3237716
  0
VERTEX
  8
HA_6291
 62
     4
 10
547087
 20
3237729
  0
VERTEX
  8
HA_6291
 62
     4
 10
547102
 20
3237740
  0
VERTEX
  8
HA_6291
 62
     4
 10
547119
 20
3237746
  0
VERTEX
  8
HA_6291
 62
     4
 10
547141
 20
3237754
  0
VERTEX
  8
HA_6291
 62
     4
 10
547159
 20
3237767
  0
SEQEND
  0
POLYLINE
  8
HA_6291
  6
CONTINUOUS
 62
     4
 66
     1
  0
VERTEX
  8
HA_6291
 62
     4
 10
556289
 20
3241057
  0
VERTEX
  8
HA_6291
 62
     4
 10
556282
 20
3240968
  0
SEQEND
  0
POLYLINE
  8
HA_6291
  6
CONTINUOUS
 62
     4
 66
     1
  0
VERTEX
  8
HA_6291
 62
     4
 10
561317
 20
3239815
  0
VERTEX
  8
HA_6291
 62
     4
 10
561317
 20
3239785
  0
SEQEND
  0
POLYLINE
  8
HA_6291
  6
CONTINUOUS
 62
     4
 66
     1
  0
VERTEX
  8
HA_6291
 62
     4
 10
563039
 20
3247920
  0
VERTEX
  8
HA_6291
 62
     4
 10
563044
 20
3247916
  0
VERTEX
  8
HA_6291
 62
     4
 10
563061
 20
3247914
  0
VERTEX
  8
HA_6291
 62
     4
 10
563068
 20
3247923
  0
VERTEX
  8
HA_6291
 62
     4
 10
563086
 20
3247932
  0
VERTEX
  8
HA_6291
 62
     4
 10
563096
 20
3247939
  0
SEQEND
  0
POLYLINE
  8
HA_6291
  6
CONTINUOUS
 62
     4
 66
     1
  0
VERTEX
  8
HA_6291
 62
     4
 10
558316
 20
3243550
  0
VERTEX
  8
HA_6291
 62
     4
 10
558312
 20
3243545
  0
VERTEX
  8
HA_6291
 62
     4
 10
558314
 20
3243534
  0
VERTEX
  8
HA_6291
 62
     4
 10
558332
 20
3243497
  0
VERTEX
  8
HA_6291
 62
     4
 10
558344
 20
3243482
  0
VERTEX
  8
HA_6291
 62
     4
 10
558418
 20
3243483
  0
VERTEX
  8
HA_6291
 62
     4
 10
558420
 20
3243494
  0
SEQEND
  0
POLYLINE
  8
HA_6291
  6
CONTINUOUS
 62
     4
 66
     1
  0
VERTEX
  8
HA_6291
 62
     4
 10
562419
 20
3262436
  0
VERTEX
  8
HA_6291
 62
     4
 10
562419
 20
3262467
  0
VERTEX
  8
HA_6291
 62
     4
 10
562407
 20
3262484
  0
SEQEND
  0
POLYLINE
  8
HA_6291
  6
CONTINUOUS
 62
     4
 66
     1
  0
VERTEX
  8
HA_6291
 62
     4
 10
555186
 20
3249310
  0
VERTEX
  8
HA_6291
 62
     4
 10
555198
 20
3249310
  0
VERTEX
  8
HA_6291
 62
     4
 10
555209
 20
3249320
  0
SEQEND
  0
POLYLINE
  8
HA_6291
  6
CONTINUOUS
 62
     4
 66
     1
  0
VERTEX
  8
HA_6291
 62
     4
 10
551674
 20
3241624
  0
VERTEX
  8
HA_6291
 62
     4
 10
551705
 20
3241626
  0
SEQEND
  0
POLYLINE
  8
HA_6291
  6
CONTINUOUS
 62
     4
 66
     1
  0
VERTEX
  8
HA_6291
 62
     4
 10
532560
 20
3259602
  0
VERTEX
  8
HA_6291
 62
     4
 10
532565
 20
3259594
  0
VERTEX
  8
HA_6291
 62
     4
 10
532577
 20
3259589
  0
VERTEX
  8
HA_6291
 62
     4
 10
532589
 20
3259593
  0
VERTEX
  8
HA_6291
 62
     4
 10
532601
 20
3259607
  0
VERTEX
  8
HA_6291
 62
     4
 10
532607
 20
3259624
  0
SEQEND
  0
POLYLINE
  8
HA_6291
  6
CONTINUOUS
 62
     4
 66
     1
  0
VERTEX
  8
HA_6291
 62
     4
 10
539187
 20
3261339
  0
VERTEX
  8
HA_6291
 62
     4
 10
539212
 20
3261345
  0
SEQEND
  0
POLYLINE
  8
HA_6291
  6
CONTINUOUS
 62
     4
 66
     1
  0
VERTEX
  8
HA_6291
 62
     4
 10
549142
 20
3245667
  0
VERTEX
  8
HA_6291
 62
     4
 10
549134
 20
3245681
  0
VERTEX
  8
HA_6291
 62
     4
 10
549132
 20
3245698
  0
VERTEX
  8
HA_6291
 62
     4
 10
549132
 20
3245706
  0
VERTEX
  8
HA_6291
 62
     4
 10
549139
 20
3245716
  0
SEQEND
  0
POLYLINE
  8
HA_6291
  6
CONTINUOUS
 62
     4
 66
     1
  0
VERTEX
  8
HA_6291
 62
     4
 10
549202
 20
3245702
  0
VERTEX
  8
HA_6291
 62
     4
 10
549205
 20
3245693
  0
VERTEX
  8
HA_6291
 62
     4
 10
549204
 20
3245681
  0
VERTEX
  8
HA_6291
 62
     4
 10
549204
 20
3245671
  0
VERTEX
  8
HA_6291
 62
     4
 10
549200
 20
3245661
  0
VERTEX
  8
HA_6291
 62
     4
 10
549192
 20
3245653
  0
SEQEND
  0
POLYLINE
  8
HA_6291
  6
CONTINUOUS
 62
     4
 66
     1
  0
VERTEX
  8
HA_6291
 62
     4
 10
532564
 20
3259676
  0
VERTEX
  8
HA_6291
 62
     4
 10
532560
 20
3259641
  0
SEQEND
  0
POLYLINE
  8
HA_6291
  6
CONTINUOUS
 62
     4
 66
     1
  0
VERTEX
  8
HA_6291
 62
     4
 10
532607
 20
3259624
  0
VERTEX
  8
HA_6291
 62
     4
 10
532607
 20
3259644
  0
VERTEX
  8
HA_6291
 62
     4
 10
532599
 20
3259665
  0
VERTEX
  8
HA_6291
 62
     4
 10
532586
 20
3259672
  0
VERTEX
  8
HA_6291
 62
     4
 10
532572
 20
3259674
  0
VERTEX
  8
HA_6291
 62
     4
 10
532564
 20
3259676
  0
SEQEND
  0
POLYLINE
  8
HA_6291
  6
CONTINUOUS
 62
     4
 66
     1
  0
VERTEX
  8
HA_6291
 62
     4
 10
549048
 20
3237748
  0
VERTEX
  8
HA_6291
 62
     4
 10
549063
 20
3237743
  0
VERTEX
  8
HA_6291
 62
     4
 10
549078
 20
3237742
  0
VERTEX
  8
HA_6291
 62
     4
 10
549094
 20
3237749
  0
VERTEX
  8
HA_6291
 62
     4
 10
549101
 20
3237759
  0
VERTEX
  8
HA_6291
 62
     4
 10
549109
 20
3237778
  0
SEQEND
  0
POLYLINE
  8
HA_6291
  6
CONTINUOUS
 62
     4
 66
     1
  0
VERTEX
  8
HA_6291
 62
     4
 10
549081
 20
3237793
  0
VERTEX
  8
HA_6291
 62
     4
 10
549109
 20
3237778
  0
SEQEND
  0
POLYLINE
  8
HA_6291
  6
CONTINUOUS
 62
     4
 66
     1
  0
VERTEX
  8
HA_6291
 62
     4
 10
562659
 20
3243924
  0
VERTEX
  8
HA_6291
 62
     4
 10
562656
 20
3243942
  0
VERTEX
  8
HA_6291
 62
     4
 10
562646
 20
3243952
  0
VERTEX
  8
HA_6291
 62
     4
 10
562634
 20
3243953
  0
VERTEX
  8
HA_6291
 62
     4
 10
562632
 20
3243959
  0
SEQEND
  0
POLYLINE
  8
HA_6291
  6
CONTINUOUS
 62
     4
 66
     1
  0
VERTEX
  8
HA_6291
 62
     4
 10
564040
 20
3261471
  0
VERTEX
  8
HA_6291
 62
     4
 10
564033
 20
3261488
  0
VERTEX
  8
HA_6291
 62
     4
 10
564026
 20
3261492
  0
VERTEX
  8
HA_6291
 62
     4
 10
564017
 20
3261500
  0
VERTEX
  8
HA_6291
 62
     4
 10
564010
 20
3261504
  0
VERTEX
  8
HA_6291
 62
     4
 10
563997
 20
3261499
  0
VERTEX
  8
HA_6291
 62
     4
 10
563988
 20
3261495
  0
VERTEX
  8
HA_6291
 62
     4
 10
563984
 20
3261491
  0
VERTEX
  8
HA_6291
 62
     4
 10
563981
 20
3261482
  0
VERTEX
  8
HA_6291
 62
     4
 10
563975
 20
3261472
  0
VERTEX
  8
HA_6291
 62
     4
 10
563969
 20
3261474
  0
SEQEND
  0
POLYLINE
  8
HA_6291
  6
CONTINUOUS
 62
     4
 66
     1
  0
VERTEX
  8
HA_6291
 62
     4
 10
534234
 20
3251429
  0
VERTEX
  8
HA_6291
 62
     4
 10
534237
 20
3251444
  0
VERTEX
  8
HA_6291
 62
     4
 10
534237
 20
3251467
  0
VERTEX
  8
HA_6291
 62
     4
 10
534234
 20
3251485
  0
VERTEX
  8
HA_6291
 62
     4
 10
534221
 20
3251497
  0
SEQEND
  0
POLYLINE
  8
HA_6291
  6
CONTINUOUS
 62
     4
 66
     1
  0
VERTEX
  8
HA_6291
 62
     4
 10
534208
 20
3251423
  0
VERTEX
  8
HA_6291
 62
     4
 10
534234
 20
3251429
  0
SEQEND
  0
POLYLINE
  8
HA_6291
  6
CONTINUOUS
 62
     4
 66
     1
  0
VERTEX
  8
HA_6291
 62
     4
 10
539237
 20
3248615
  0
VERTEX
  8
HA_6291
 62
     4
 10
539226
 20
3248625
  0
VERTEX
  8
HA_6291
 62
     4
 10
539211
 20
3248622
  0
VERTEX
  8
HA_6291
 62
     4
 10
539197
 20
3248587
  0
VERTEX
  8
HA_6291
 62
     4
 10
539188
 20
3248551
  0
VERTEX
  8
HA_6291
 62
     4
 10
539188
 20
3248525
  0
VERTEX
  8
HA_6291
 62
     4
 10
539191
 20
3248494
  0
SEQEND
  0
POLYLINE
  8
HA_6291
  6
CONTINUOUS
 62
     4
 66
     1
  0
VERTEX
  8
HA_6291
 62
     4
 10
544853
 20
3262383
  0
VERTEX
  8
HA_6291
 62
     4
 10
544843
 20
3262372
  0
VERTEX
  8
HA_6291
 62
     4
 10
544828
 20
3262368
  0
VERTEX
  8
HA_6291
 62
     4
 10
544812
 20
3262372
  0
VERTEX
  8
HA_6291
 62
     4
 10
544798
 20
3262383
  0
SEQEND
  0
POLYLINE
  8
HA_6291
  6
CONTINUOUS
 62
     4
 66
     1
  0
VERTEX
  8
HA_6291
 62
     4
 10
543182
 20
3245374
  0
VERTEX
  8
HA_6291
 62
     4
 10
543157
 20
3245365
  0
VERTEX
  8
HA_6291
 62
     4
 10
543139
 20
3245344
  0
SEQEND
  0
POLYLINE
  8
HA_6291
  6
CONTINUOUS
 62
     4
 66
     1
  0
VERTEX
  8
HA_6291
 62
     4
 10
545859
 20
3262456
  0
VERTEX
  8
HA_6291
 62
     4
 10
545854
 20
3262446
  0
VERTEX
  8
HA_6291
 62
     4
 10
545849
 20
3262433
  0
VERTEX
  8
HA_6291
 62
     4
 10
545848
 20
3262415
  0
VERTEX
  8
HA_6291
 62
     4
 10
545851
 20
3262395
  0
VERTEX
  8
HA_6291
 62
     4
 10
545853
 20
3262380
  0
SEQEND
  0
POLYLINE
  8
HA_6291
  6
CONTINUOUS
 62
     4
 66
     1
  0
VERTEX
  8
HA_6291
 62
     4
 10
542174
 20
3245397
  0
VERTEX
  8
HA_6291
 62
     4
 10
542191
 20
3245433
  0
SEQEND
  0
POLYLINE
  8
HA_6291
  6
CONTINUOUS
 62
     4
 66
     1
  0
VERTEX
  8
HA_6291
 62
     4
 10
562371
 20
3246277
  0
VERTEX
  8
HA_6291
 62
     4
 10
562381
 20
3246276
  0
VERTEX
  8
HA_6291
 62
     4
 10
562392
 20
3246268
  0
VERTEX
  8
HA_6291
 62
     4
 10
562400
 20
3246257
  0
VERTEX
  8
HA_6291
 62
     4
 10
562409
 20
3246239
  0
VERTEX
  8
HA_6291
 62
     4
 10
562404
 20
3246230
  0
SEQEND
  0
POLYLINE
  8
HA_6291
  6
CONTINUOUS
 62
     4
 66
     1
  0
VERTEX
  8
HA_6291
 62
     4
 10
545952
 20
3237091
  0
VERTEX
  8
HA_6291
 62
     4
 10
545975
 20
3237090
  0
SEQEND
  0
POLYLINE
  8
HA_6291
  6
CONTINUOUS
 62
     4
 66
     1
  0
VERTEX
  8
HA_6291
 62
     4
 10
564473
 20
3249558
  0
VERTEX
  8
HA_6291
 62
     4
 10
564481
 20
3249584
  0
SEQEND
  0
POLYLINE
  8
HA_6291
  6
CONTINUOUS
 62
     4
 66
     1
  0
VERTEX
  8
HA_6291
 62
     4
 10
532899
 20
3240945
  0
VERTEX
  8
HA_6291
 62
     4
 10
532893
 20
3240943
  0
VERTEX
  8
HA_6291
 62
     4
 10
532889
 20
3240936
  0
VERTEX
  8
HA_6291
 62
     4
 10
532889
 20
3240910
  0
VERTEX
  8
HA_6291
 62
     4
 10
532892
 20
3240899
  0
SEQEND
  0
POLYLINE
  8
HA_6291
  6
CONTINUOUS
 62
     4
 66
     1
  0
VERTEX
  8
HA_6291
 62
     4
 10
563517
 20
3248531
  0
VERTEX
  8
HA_6291
 62
     4
 10
563506
 20
3248531
  0
VERTEX
  8
HA_6291
 62
     4
 10
563496
 20
3248538
  0
SEQEND
  0
POLYLINE
  8
HA_6291
  6
CONTINUOUS
 62
     4
 66
     1
  0
VERTEX
  8
HA_6291
 62
     4
 10
538043
 20
3249909
  0
VERTEX
  8
HA_6291
 62
     4
 10
538027
 20
3249844
  0
SEQEND
  0
POLYLINE
  8
HA_6291
  6
CONTINUOUS
 62
     4
 66
     1
  0
VERTEX
  8
HA_6291
 62
     4
 10
554277
 20
3249178
  0
VERTEX
  8
HA_6291
 62
     4
 10
554284
 20
3249184
  0
VERTEX
  8
HA_6291
 62
     4
 10
554286
 20
3249195
  0
VERTEX
  8
HA_6291
 62
     4
 10
554289
 20
3249213
  0
VERTEX
  8
HA_6291
 62
     4
 10
554301
 20
3249223
  0
VERTEX
  8
HA_6291
 62
     4
 10
554311
 20
3249227
  0
VERTEX
  8
HA_6291
 62
     4
 10
554327
 20
3249240
  0
VERTEX
  8
HA_6291
 62
     4
 10
554330
 20
3249248
  0
VERTEX
  8
HA_6291
 62
     4
 10
554328
 20
3249251
  0
SEQEND
  0
POLYLINE
  8
HA_6291
  6
CONTINUOUS
 62
     4
 66
     1
  0
VERTEX
  8
HA_6291
 62
     4
 10
547108
 20
3237682
  0
VERTEX
  8
HA_6291
 62
     4
 10
547091
 20
3237682
  0
VERTEX
  8
HA_6291
 62
     4
 10
547083
 20
3237695
  0
SEQEND
  0
POLYLINE
  8
HA_6291
  6
CONTINUOUS
 62
     4
 66
     1
  0
VERTEX
  8
HA_6291
 62
     4
 10
555543
 20
3239297
  0
VERTEX
  8
HA_6291
 62
     4
 10
555555
 20
3239297
  0
VERTEX
  8
HA_6291
 62
     4
 10
555560
 20
3239313
  0
VERTEX
  8
HA_6291
 62
     4
 10
555557
 20
3239328
  0
VERTEX
  8
HA_6291
 62
     4
 10
555551
 20
3239343
  0
SEQEND
  0
POLYLINE
  8
HA_6291
  6
CONTINUOUS
 62
     4
 66
     1
  0
VERTEX
  8
HA_6291
 62
     4
 10
562604
 20
3243877
  0
VERTEX
  8
HA_6291
 62
     4
 10
562619
 20
3243881
  0
VERTEX
  8
HA_6291
 62
     4
 10
562634
 20
3243881
  0
VERTEX
  8
HA_6291
 62
     4
 10
562650
 20
3243889
  0
VERTEX
  8
HA_6291
 62
     4
 10
562651
 20
3243891
  0
VERTEX
  8
HA_6291
 62
     4
 10
562659
 20
3243904
  0
VERTEX
  8
HA_6291
 62
     4
 10
562659
 20
3243924
  0
SEQEND
  0
POLYLINE
  8
HA_6291
  6
CONTINUOUS
 62
     4
 66
     1
  0
VERTEX
  8
HA_6291
 62
     4
 10
562371
 20
3246277
  0
VERTEX
  8
HA_6291
 62
     4
 10
562361
 20
3246276
  0
VERTEX
  8
HA_6291
 62
     4
 10
562349
 20
3246269
  0
VERTEX
  8
HA_6291
 62
     4
 10
562344
 20
3246260
  0
VERTEX
  8
HA_6291
 62
     4
 10
562338
 20
3246244
  0
VERTEX
  8
HA_6291
 62
     4
 10
562342
 20
3246226
  0
SEQEND
  0
POLYLINE
  8
HA_6291
  6
CONTINUOUS
 62
     4
 66
     1
  0
VERTEX
  8
HA_6291
 62
     4
 10
548114
 20
3261169
  0
VERTEX
  8
HA_6291
 62
     4
 10
548196
 20
3261170
  0
SEQEND
  0
POLYLINE
  8
HA_6291
  6
CONTINUOUS
 62
     4
 66
     1
  0
VERTEX
  8
HA_6291
 62
     4
 10
542709
 20
3256732
  0
VERTEX
  8
HA_6291
 62
     4
 10
542710
 20
3256745
  0
SEQEND
  0
POLYLINE
  8
HA_6291
  6
CONTINUOUS
 62
     4
 66
     1
  0
VERTEX
  8
HA_6291
 62
     4
 10
552956
 20
3252672
  0
VERTEX
  8
HA_6291
 62
     4
 10
552945
 20
3252679
  0
VERTEX
  8
HA_6291
 62
     4
 10
552935
 20
3252703
  0
VERTEX
  8
HA_6291
 62
     4
 10
552934
 20
3252739
  0
VERTEX
  8
HA_6291
 62
     4
 10
552938
 20
3252806
  0
VERTEX
  8
HA_6291
 62
     4
 10
552942
 20
3252837
  0
VERTEX
  8
HA_6291
 62
     4
 10
552950
 20
3252883
  0
VERTEX
  8
HA_6291
 62
     4
 10
552969
 20
3252966
  0
VERTEX
  8
HA_6291
 62
     4
 10
552998
 20
3253028
  0
VERTEX
  8
HA_6291
 62
     4
 10
553025
 20
3253061
  0
SEQEND
  0
POLYLINE
  8
HA_6291
  6
CONTINUOUS
 62
     4
 66
     1
  0
VERTEX
  8
HA_6291
 62
     4
 10
549022
 20
3259759
  0
VERTEX
  8
HA_6291
 62
     4
 10
548999
 20
3259761
  0
VERTEX
  8
HA_6291
 62
     4
 10
548982
 20
3259747
  0
VERTEX
  8
HA_6291
 62
     4
 10
548967
 20
3259734
  0
VERTEX
  8
HA_6291
 62
     4
 10
548959
 20
3259730
  0
VERTEX
  8
HA_6291
 62
     4
 10
548946
 20
3259717
  0
VERTEX
  8
HA_6291
 62
     4
 10
548949
 20
3259705
  0
VERTEX
  8
HA_6291
 62
     4
 10
548957
 20
3259690
  0
VERTEX
  8
HA_6291
 62
     4
 10
548974
 20
3259674
  0
VERTEX
  8
HA_6291
 62
     4
 10
548990
 20
3259663
  0
VERTEX
  8
HA_6291
 62
     4
 10
549003
 20
3259663
  0
SEQEND
  0
POLYLINE
  8
HA_6291
  6
CONTINUOUS
 62
     4
 66
     1
  0
VERTEX
  8
HA_6291
 62
     4
 10
548921
 20
3242660
  0
VERTEX
  8
HA_6291
 62
     4
 10
548943
 20
3242670
  0
SEQEND
  0
POLYLINE
  8
HA_6291
  6
CONTINUOUS
 62
     4
 66
     1
  0
VERTEX
  8
HA_6291
 62
     4
 10
542807
 20
3251036
  0
VERTEX
  8
HA_6291
 62
     4
 10
542823
 20
3251037
  0
VERTEX
  8
HA_6291
 62
     4
 10
542843
 20
3251031
  0
VERTEX
  8
HA_6291
 62
     4
 10
542853
 20
3251022
  0
SEQEND
  0
POLYLINE
  8
HA_6291
  6
CONTINUOUS
 62
     4
 66
     1
  0
VERTEX
  8
HA_6291
 62
     4
 10
557678
 20
3251230
  0
VERTEX
  8
HA_6291
 62
     4
 10
557700
 20
3251221
  0
VERTEX
  8
HA_6291
 62
     4
 10
557730
 20
3251210
  0
VERTEX
  8
HA_6291
 62
     4
 10
557736
 20
3251214
  0
SEQEND
  0
POLYLINE
  8
HA_6291
  6
CONTINUOUS
 62
     4
 66
     1
  0
VERTEX
  8
HA_6291
 62
     4
 10
549822
 20
3244720
  0
VERTEX
  8
HA_6291
 62
     4
 10
549832
 20
3244737
  0
SEQEND
  0
POLYLINE
  8
HA_6291
  6
CONTINUOUS
 62
     4
 66
     1
  0
VERTEX
  8
HA_6291
 62
     4
 10
564492
 20
3249603
  0
VERTEX
  8
HA_6291
 62
     4
 10
564511
 20
3249585
  0
VERTEX
  8
HA_6291
 62
     4
 10
564513
 20
3249568
  0
VERTEX
  8
HA_6291
 62
     4
 10
564512
 20
3249559
  0
SEQEND
  0
POLYLINE
  8
HA_6291
  6
CONTINUOUS
 62
     4
 66
     1
  0
VERTEX
  8
HA_6291
 62
     4
 10
563096
 20
3247939
  0
VERTEX
  8
HA_6291
 62
     4
 10
563101
 20
3247956
  0
VERTEX
  8
HA_6291
 62
     4
 10
563097
 20
3247974
  0
VERTEX
  8
HA_6291
 62
     4
 10
563087
 20
3247989
  0
VERTEX
  8
HA_6291
 62
     4
 10
563069
 20
3248013
  0
VERTEX
  8
HA_6291
 62
     4
 10
563058
 20
3248019
  0
VERTEX
  8
HA_6291
 62
     4
 10
563047
 20
3248020
  0
SEQEND
  0
POLYLINE
  8
HA_6291
  6
CONTINUOUS
 62
     4
 66
     1
  0
VERTEX
  8
HA_6291
 62
     4
 10
544798
 20
3262383
  0
VERTEX
  8
HA_6291
 62
     4
 10
544790
 20
3262399
  0
VERTEX
  8
HA_6291
 62
     4
 10
544795
 20
3262420
  0
VERTEX
  8
HA_6291
 62
     4
 10
544810
 20
3262439
  0
SEQEND
  0
POLYLINE
  8
HA_6291
  6
CONTINUOUS
 62
     4
 66
     1
  0
VERTEX
  8
HA_6291
 62
     4
 10
549192
 20
3245653
  0
VERTEX
  8
HA_6291
 62
     4
 10
549173
 20
3245654
  0
VERTEX
  8
HA_6291
 62
     4
 10
549157
 20
3245655
  0
VERTEX
  8
HA_6291
 62
     4
 10
549142
 20
3245667
  0
SEQEND
  0
POLYLINE
  8
HA_6291
  6
CONTINUOUS
 62
     4
 66
     1
  0
VERTEX
  8
HA_6291
 62
     4
 10
551686
 20
3241574
  0
VERTEX
  8
HA_6291
 62
     4
 10
551701
 20
3241585
  0
VERTEX
  8
HA_6291
 62
     4
 10
551705
 20
3241595
  0
VERTEX
  8
HA_6291
 62
     4
 10
551709
 20
3241611
  0
VERTEX
  8
HA_6291
 62
     4
 10
551705
 20
3241626
  0
SEQEND
  0
POLYLINE
  8
HA_6291
  6
CONTINUOUS
 62
     4
 66
     1
  0
VERTEX
  8
HA_6291
 62
     4
 10
539212
 20
3261345
  0
VERTEX
  8
HA_6291
 62
     4
 10
539241
 20
3261346
  0
SEQEND
  0
POLYLINE
  8
HA_6291
  6
CONTINUOUS
 62
     4
 66
     1
  0
VERTEX
  8
HA_6291
 62
     4
 10
562619
 20
3243933
  0
VERTEX
  8
HA_6291
 62
     4
 10
562632
 20
3243959
  0
SEQEND
  0
POLYLINE
  8
HA_6291
  6
CONTINUOUS
 62
     4
 66
     1
  0
VERTEX
  8
HA_6291
 62
     4
 10
542753
 20
3256747
  0
VERTEX
  8
HA_6291
 62
     4
 10
542760
 20
3256729
  0
SEQEND
  0
POLYLINE
  8
HA_6291
  6
CONTINUOUS
 62
     4
 66
     1
  0
VERTEX
  8
HA_6291
 62
     4
 10
542760
 20
3256729
  0
VERTEX
  8
HA_6291
 62
     4
 10
542758
 20
3256717
  0
SEQEND
  0
POLYLINE
  8
HA_6291
  6
CONTINUOUS
 62
     4
 66
     1
  0
VERTEX
  8
HA_6291
 62
     4
 10
542758
 20
3256717
  0
VERTEX
  8
HA_6291
 62
     4
 10
542756
 20
3256702
  0
SEQEND
  0
POLYLINE
  8
HA_6291
  6
CONTINUOUS
 62
     4
 66
     1
  0
VERTEX
  8
HA_6291
 62
     4
 10
542756
 20
3256702
  0
VERTEX
  8
HA_6291
 62
     4
 10
542747
 20
3256691
  0
SEQEND
  0
POLYLINE
  8
HA_6291
  6
CONTINUOUS
 62
     4
 66
     1
  0
VERTEX
  8
HA_6291
 62
     4
 10
542747
 20
3256691
  0
VERTEX
  8
HA_6291
 62
     4
 10
542734
 20
3256684
  0
SEQEND
  0
POLYLINE
  8
HA_6291
  6
CONTINUOUS
 62
     4
 66
     1
  0
VERTEX
  8
HA_6291
 62
     4
 10
542734
 20
3256684
  0
VERTEX
  8
HA_6291
 62
     4
 10
542719
 20
3256687
  0
SEQEND
  0
POLYLINE
  8
HA_6291
  6
CONTINUOUS
 62
     4
 66
     1
  0
VERTEX
  8
HA_6291
 62
     4
 10
542719
 20
3256687
  0
VERTEX
  8
HA_6291
 62
     4
 10
542712
 20
3256694
  0
SEQEND
  0
POLYLINE
  8
HA_6291
  6
CONTINUOUS
 62
     4
 66
     1
  0
VERTEX
  8
HA_6291
 62
     4
 10
542712
 20
3256694
  0
VERTEX
  8
HA_6291
 62
     4
 10
542708
 20
3256703
  0
SEQEND
  0
POLYLINE
  8
HA_6291
  6
CONTINUOUS
 62
     4
 66
     1
  0
VERTEX
  8
HA_6291
 62
     4
 10
542708
 20
3256703
  0
VERTEX
  8
HA_6291
 62
     4
 10
542709
 20
3256732
  0
SEQEND
  0
POLYLINE
  8
HA_6291
  6
CONTINUOUS
 62
     4
 66
     1
  0
VERTEX
  8
HA_6291
 62
     4
 10
557690
 20
3251251
  0
VERTEX
  8
HA_6291
 62
     4
 10
557710
 20
3251288
  0
SEQEND
  0
POLYLINE
  8
HA_6291
  6
CONTINUOUS
 62
     4
 66
     1
  0
VERTEX
  8
HA_6291
 62
     4
 10
538014
 20
3249797
  0
VERTEX
  8
HA_6291
 62
     4
 10
538001
 20
3249790
  0
VERTEX
  8
HA_6291
 62
     4
 10
537987
 20
3249802
  0
VERTEX
  8
HA_6291
 62
     4
 10
537973
 20
3249820
  0
VERTEX
  8
HA_6291
 62
     4
 10
537965
 20
3249843
  0
VERTEX
  8
HA_6291
 62
     4
 10
537964
 20
3249864
  0
SEQEND
  0
POLYLINE
  8
HA_6291
  6
CONTINUOUS
 62
     4
 66
     1
  0
VERTEX
  8
HA_6291
 62
     4
 10
558420
 20
3243494
  0
VERTEX
  8
HA_6291
 62
     4
 10
558415
 20
3243506
  0
VERTEX
  8
HA_6291
 62
     4
 10
558400
 20
3243520
  0
VERTEX
  8
HA_6291
 62
     4
 10
558356
 20
3243540
  0
VERTEX
  8
HA_6291
 62
     4
 10
558316
 20
3243550
  0
SEQEND
  0
POLYLINE
  8
HA_6291
  6
CONTINUOUS
 62
     4
 66
     1
  0
VERTEX
  8
HA_6291
 62
     4
 10
543168
 20
3245343
  0
VERTEX
  8
HA_6291
 62
     4
 10
543211
 20
3245336
  0
SEQEND
  0
POLYLINE
  8
HA_6291
  6
CONTINUOUS
 62
     4
 66
     1
  0
VERTEX
  8
HA_6291
 62
     4
 10
543139
 20
3245344
  0
VERTEX
  8
HA_6291
 62
     4
 10
543168
 20
3245343
  0
SEQEND
  0
POLYLINE
  8
HA_6291
  6
CONTINUOUS
 62
     4
 66
     1
  0
VERTEX
  8
HA_6291
 62
     4
 10
542794
 20
3251014
  0
VERTEX
  8
HA_6291
 62
     4
 10
542796
 20
3250998
  0
VERTEX
  8
HA_6291
 62
     4
 10
542803
 20
3250986
  0
VERTEX
  8
HA_6291
 62
     4
 10
542810
 20
3250978
  0
SEQEND
  0
POLYLINE
  8
HA_6291
  6
CONTINUOUS
 62
     4
 66
     1
  0
VERTEX
  8
HA_6291
 62
     4
 10
542204
 20
3245375
  0
VERTEX
  8
HA_6291
 62
     4
 10
542223
 20
3245394
  0
VERTEX
  8
HA_6291
 62
     4
 10
542231
 20
3245408
  0
VERTEX
  8
HA_6291
 62
     4
 10
542232
 20
3245426
  0
VERTEX
  8
HA_6291
 62
     4
 10
542221
 20
3245438
  0
VERTEX
  8
HA_6291
 62
     4
 10
542204
 20
3245442
  0
VERTEX
  8
HA_6291
 62
     4
 10
542191
 20
3245433
  0
SEQEND
  0
POLYLINE
  8
HA_6291
  6
CONTINUOUS
 62
     4
 66
     1
  0
VERTEX
  8
HA_6291
 62
     4
 10
557678
 20
3251230
  0
VERTEX
  8
HA_6291
 62
     4
 10
557690
 20
3251251
  0
SEQEND
  0
POLYLINE
  8
HA_6291
  6
CONTINUOUS
 62
     4
 66
     1
  0
VERTEX
  8
HA_6291
 62
     4
 10
545926
 20
3237097
  0
VERTEX
  8
HA_6291
 62
     4
 10
545952
 20
3237091
  0
SEQEND
  0
POLYLINE
  8
HA_6291
  6
CONTINUOUS
 62
     4
 66
     1
  0
VERTEX
  8
HA_6291
 62
     4
 10
532892
 20
3240899
  0
VERTEX
  8
HA_6291
 62
     4
 10
532905
 20
3240896
  0
VERTEX
  8
HA_6291
 62
     4
 10
532916
 20
3240908
  0
VERTEX
  8
HA_6291
 62
     4
 10
532920
 20
3240924
  0
VERTEX
  8
HA_6291
 62
     4
 10
532912
 20
3240937
  0
VERTEX
  8
HA_6291
 62
     4
 10
532899
 20
3240945
  0
SEQEND
  0
POLYLINE
  8
HA_6291
  6
CONTINUOUS
 62
     4
 66
     1
  0
VERTEX
  8
HA_6291
 62
     4
 10
564481
 20
3249584
  0
VERTEX
  8
HA_6291
 62
     4
 10
564492
 20
3249603
  0
SEQEND
  0
POLYLINE
  8
HA_6291
  6
CONTINUOUS
 62
     4
 66
     1
  0
VERTEX
  8
HA_6291
 62
     4
 10
563496
 20
3248538
  0
VERTEX
  8
HA_6291
 62
     4
 10
563500
 20
3248549
  0
SEQEND
  0
POLYLINE
  8
HA_6291
  6
CONTINUOUS
 62
     4
 66
     1
  0
VERTEX
  8
HA_6291
 62
     4
 10
553173
 20
3253301
  0
VERTEX
  8
HA_6291
 62
     4
 10
553187
 20
3253294
  0
VERTEX
  8
HA_6291
 62
     4
 10
553203
 20
3253307
  0
VERTEX
  8
HA_6291
 62
     4
 10
553234
 20
3253326
  0
VERTEX
  8
HA_6291
 62
     4
 10
553260
 20
3253338
  0
VERTEX
  8
HA_6291
 62
     4
 10
553296
 20
3253346
  0
VERTEX
  8
HA_6291
 62
     4
 10
553356
 20
3253341
  0
VERTEX
  8
HA_6291
 62
     4
 10
553420
 20
3253340
  0
VERTEX
  8
HA_6291
 62
     4
 10
553473
 20
3253334
  0
VERTEX
  8
HA_6291
 62
     4
 10
553504
 20
3253334
  0
VERTEX
  8
HA_6291
 62
     4
 10
553535
 20
3253338
  0
VERTEX
  8
HA_6291
 62
     4
 10
553565
 20
3253338
  0
VERTEX
  8
HA_6291
 62
     4
 10
553611
 20
3253355
  0
VERTEX
  8
HA_6291
 62
     4
 10
553663
 20
3253386
  0
VERTEX
  8
HA_6291
 62
     4
 10
553708
 20
3253416
  0
VERTEX
  8
HA_6291
 62
     4
 10
553729
 20
3253427
  0
VERTEX
  8
HA_6291
 62
     4
 10
553747
 20
3253437
  0
SEQEND
  0
POLYLINE
  8
HA_6291
  6
CONTINUOUS
 62
     4
 66
     1
  0
VERTEX
  8
HA_6291
 62
     4
 10
538027
 20
3249844
  0
VERTEX
  8
HA_6291
 62
     4
 10
538014
 20
3249797
  0
SEQEND
  0
POLYLINE
  8
HA_6291
  6
CONTINUOUS
 62
     4
 66
     1
  0
VERTEX
  8
HA_6291
 62
     4
 10
554328
 20
3249251
  0
VERTEX
  8
HA_6291
 62
     4
 10
554321
 20
3249254
  0
VERTEX
  8
HA_6291
 62
     4
 10
554312
 20
3249252
  0
VERTEX
  8
HA_6291
 62
     4
 10
554302
 20
3249249
  0
VERTEX
  8
HA_6291
 62
     4
 10
554291
 20
3249247
  0
VERTEX
  8
HA_6291
 62
     4
 10
554278
 20
3249249
  0
VERTEX
  8
HA_6291
 62
     4
 10
554254
 20
3249261
  0
VERTEX
  8
HA_6291
 62
     4
 10
554242
 20
3249263
  0
VERTEX
  8
HA_6291
 62
     4
 10
554228
 20
3249266
  0
VERTEX
  8
HA_6291
 62
     4
 10
554214
 20
3249267
  0
SEQEND
  0
POLYLINE
  8
HA_6291
  6
CONTINUOUS
 62
     4
 66
     1
  0
VERTEX
  8
HA_6291
 62
     4
 10
553966
 20
3253784
  0
VERTEX
  8
HA_6291
 62
     4
 10
553900
 20
3253701
  0
VERTEX
  8
HA_6291
 62
     4
 10
553877
 20
3253662
  0
SEQEND
  0
POLYLINE
  8
HA_6291
  6
CONTINUOUS
 62
     4
 66
     1
  0
VERTEX
  8
HA_6291
 62
     4
 10
548196
 20
3261170
  0
VERTEX
  8
HA_6291
 62
     4
 10
548201
 20
3261191
  0
VERTEX
  8
HA_6291
 62
     4
 10
548204
 20
3261212
  0
VERTEX
  8
HA_6291
 62
     4
 10
548200
 20
3261234
  0
VERTEX
  8
HA_6291
 62
     4
 10
548197
 20
3261250
  0
VERTEX
  8
HA_6291
 62
     4
 10
548181
 20
3261271
  0
VERTEX
  8
HA_6291
 62
     4
 10
548168
 20
3261275
  0
VERTEX
  8
HA_6291
 62
     4
 10
548158
 20
3261269
  0
VERTEX
  8
HA_6291
 62
     4
 10
548155
 20
3261253
  0
VERTEX
  8
HA_6291
 62
     4
 10
548157
 20
3261239
  0
VERTEX
  8
HA_6291
 62
     4
 10
548145
 20
3261231
  0
VERTEX
  8
HA_6291
 62
     4
 10
548128
 20
3261229
  0
VERTEX
  8
HA_6291
 62
     4
 10
548114
 20
3261227
  0
VERTEX
  8
HA_6291
 62
     4
 10
548101
 20
3261223
  0
VERTEX
  8
HA_6291
 62
     4
 10
548088
 20
3261217
  0
VERTEX
  8
HA_6291
 62
     4
 10
548079
 20
3261212
  0
SEQEND
  0
POLYLINE
  8
HA_6291
  6
CONTINUOUS
 62
     4
 66
     1
  0
VERTEX
  8
HA_6291
 62
     4
 10
537707
 20
3253646
  0
VERTEX
  8
HA_6291
 62
     4
 10
537687
 20
3253635
  0
SEQEND
  0
POLYLINE
  8
HA_6291
  6
CONTINUOUS
 62
     4
 66
     1
  0
VERTEX
  8
HA_6291
 62
     4
 10
557870
 20
3240556
  0
VERTEX
  8
HA_6291
 62
     4
 10
557870
 20
3240564
  0
VERTEX
  8
HA_6291
 62
     4
 10
557866
 20
3240573
  0
VERTEX
  8
HA_6291
 62
     4
 10
557856
 20
3240587
  0
SEQEND
  0
POLYLINE
  8
HA_6291
  6
CONTINUOUS
 62
     4
 66
     1
  0
VERTEX
  8
HA_6291
 62
     4
 10
555505
 20
3239328
  0
VERTEX
  8
HA_6291
 62
     4
 10
555525
 20
3239312
  0
SEQEND
  0
POLYLINE
  8
HA_6291
  6
CONTINUOUS
 62
     4
 66
     1
  0
VERTEX
  8
HA_6291
 62
     4
 10
555525
 20
3239312
  0
VERTEX
  8
HA_6291
 62
     4
 10
555543
 20
3239297
  0
SEQEND
  0
POLYLINE
  8
HA_6291
  6
CONTINUOUS
 62
     4
 66
     1
  0
VERTEX
  8
HA_6291
 62
     4
 10
549139
 20
3245716
  0
VERTEX
  8
HA_6291
 62
     4
 10
549157
 20
3245714
  0
VERTEX
  8
HA_6291
 62
     4
 10
549171
 20
3245709
  0
SEQEND
  0
POLYLINE
  8
HA_6291
  6
CONTINUOUS
 62
     4
 66
     1
  0
VERTEX
  8
HA_6291
 62
     4
 10
549171
 20
3245709
  0
VERTEX
  8
HA_6291
 62
     4
 10
549188
 20
3245705
  0
VERTEX
  8
HA_6291
 62
     4
 10
549202
 20
3245702
  0
SEQEND
  0
POLYLINE
  8
HA_6291
  6
CONTINUOUS
 62
     4
 66
     1
  0
VERTEX
  8
HA_6291
 62
     4
 10
548943
 20
3242670
  0
VERTEX
  8
HA_6291
 62
     4
 10
548961
 20
3242679
  0
VERTEX
  8
HA_6291
 62
     4
 10
549005
 20
3242699
  0
SEQEND
  0
POLYLINE
  8
HA_6291
  6
CONTINUOUS
 62
     4
 66
     1
  0
VERTEX
  8
HA_6291
 62
     4
 10
556445
 20
3239544
  0
VERTEX
  8
HA_6291
 62
     4
 10
556470
 20
3239568
  0
VERTEX
  8
HA_6291
 62
     4
 10
556478
 20
3239576
  0
SEQEND
  0
POLYLINE
  8
HA_6291
  6
CONTINUOUS
 62
     4
 66
     1
  0
VERTEX
  8
HA_6291
 62
     4
 10
556478
 20
3239576
  0
VERTEX
  8
HA_6291
 62
     4
 10
556487
 20
3239585
  0
VERTEX
  8
HA_6291
 62
     4
 10
556501
 20
3239613
  0
VERTEX
  8
HA_6291
 62
     4
 10
556508
 20
3239628
  0
SEQEND
  0
POLYLINE
  8
HA_6291
  6
CONTINUOUS
 62
     4
 66
     1
  0
VERTEX
  8
HA_6291
 62
     4
 10
557821
 20
3240559
  0
VERTEX
  8
HA_6291
 62
     4
 10
557846
 20
3240583
  0
VERTEX
  8
HA_6291
 62
     4
 10
557856
 20
3240587
  0
SEQEND
  0
POLYLINE
  8
HA_6291
  6
CONTINUOUS
 62
     4
 66
     1
  0
VERTEX
  8
HA_6291
 62
     4
 10
559545
 20
3243470
  0
VERTEX
  8
HA_6291
 62
     4
 10
559554
 20
3243448
  0
VERTEX
  8
HA_6291
 62
     4
 10
559563
 20
3243437
  0
VERTEX
  8
HA_6291
 62
     4
 10
559584
 20
3243431
  0
VERTEX
  8
HA_6291
 62
     4
 10
559610
 20
3243436
  0
VERTEX
  8
HA_6291
 62
     4
 10
559632
 20
3243442
  0
VERTEX
  8
HA_6291
 62
     4
 10
559646
 20
3243448
  0
SEQEND
  0
POLYLINE
  8
HA_6291
  6
CONTINUOUS
 62
     4
 66
     1
  0
VERTEX
  8
HA_6291
 62
     4
 10
560141
 20
3242453
  0
VERTEX
  8
HA_6291
 62
     4
 10
560126
 20
3242465
  0
VERTEX
  8
HA_6291
 62
     4
 10
560124
 20
3242482
  0
VERTEX
  8
HA_6291
 62
     4
 10
560128
 20
3242491
  0
VERTEX
  8
HA_6291
 62
     4
 10
560137
 20
3242496
  0
VERTEX
  8
HA_6291
 62
     4
 10
560155
 20
3242499
  0
SEQEND
  0
POLYLINE
  8
HA_6291
  6
CONTINUOUS
 62
     4
 66
     1
  0
VERTEX
  8
HA_6291
 62
     4
 10
561317
 20
3239815
  0
VERTEX
  8
HA_6291
 62
     4
 10
561323
 20
3239829
  0
VERTEX
  8
HA_6291
 62
     4
 10
561338
 20
3239847
  0
VERTEX
  8
HA_6291
 62
     4
 10
561351
 20
3239854
  0
SEQEND
  0
POLYLINE
  8
HA_6291
  6
CONTINUOUS
 62
     4
 66
     1
  0
VERTEX
  8
HA_6291
 62
     4
 10
564541
 20
3237736
  0
VERTEX
  8
HA_6291
 62
     4
 10
564534
 20
3237725
  0
VERTEX
  8
HA_6291
 62
     4
 10
564532
 20
3237713
  0
VERTEX
  8
HA_6291
 62
     4
 10
564537
 20
3237697
  0
VERTEX
  8
HA_6291
 62
     4
 10
564548
 20
3237690
  0
VERTEX
  8
HA_6291
 62
     4
 10
564566
 20
3237684
  0
VERTEX
  8
HA_6291
 62
     4
 10
564578
 20
3237688
  0
VERTEX
  8
HA_6291
 62
     4
 10
564590
 20
3237700
  0
SEQEND
  0
POLYLINE
  8
HA_6291
  6
CONTINUOUS
 62
     4
 66
     1
  0
VERTEX
  8
HA_6291
 62
     4
 10
564309
 20
3243848
  0
VERTEX
  8
HA_6291
 62
     4
 10
564308
 20
3243874
  0
VERTEX
  8
HA_6291
 62
     4
 10
564314
 20
3243892
  0
SEQEND
  0
POLYLINE
  8
HA_6291
  6
CONTINUOUS
 62
     4
 66
     1
  0
VERTEX
  8
HA_6291
 62
     4
 10
564309
 20
3243848
  0
VERTEX
  8
HA_6291
 62
     4
 10
564312
 20
3243824
  0
VERTEX
  8
HA_6291
 62
     4
 10
564322
 20
3243811
  0
SEQEND
  0
POLYLINE
  8
HA_6291
  6
CONTINUOUS
 62
     4
 66
     1
  0
VERTEX
  8
HA_6291
 62
     4
 10
562925
 20
3245051
  0
VERTEX
  8
HA_6291
 62
     4
 10
562936
 20
3245038
  0
VERTEX
  8
HA_6291
 62
     4
 10
562948
 20
3245032
  0
SEQEND
  0
POLYLINE
  8
HA_6291
  6
CONTINUOUS
 62
     4
 66
     1
  0
VERTEX
  8
HA_6291
 62
     4
 10
562948
 20
3245032
  0
VERTEX
  8
HA_6291
 62
     4
 10
562969
 20
3245031
  0
VERTEX
  8
HA_6291
 62
     4
 10
562986
 20
3245032
  0
SEQEND
  0
POLYLINE
  8
HA_6291
  6
CONTINUOUS
 62
     4
 66
     1
  0
VERTEX
  8
HA_6291
 62
     4
 10
564206
 20
3246140
  0
VERTEX
  8
HA_6291
 62
     4
 10
564211
 20
3246163
  0
VERTEX
  8
HA_6291
 62
     4
 10
564212
 20
3246173
  0
SEQEND
  0
POLYLINE
  8
HA_6291
  6
CONTINUOUS
 62
     4
 66
     1
  0
VERTEX
  8
HA_6291
 62
     4
 10
563035
 20
3247976
  0
VERTEX
  8
HA_6291
 62
     4
 10
563035
 20
3247953
  0
VERTEX
  8
HA_6291
 62
     4
 10
563036
 20
3247936
  0
VERTEX
  8
HA_6291
 62
     4
 10
563039
 20
3247920
  0
SEQEND
  0
POLYLINE
  8
HA_6291
  6
CONTINUOUS
 62
     4
 66
     1
  0
VERTEX
  8
HA_6291
 62
     4
 10
563035
 20
3247976
  0
VERTEX
  8
HA_6291
 62
     4
 10
563037
 20
3247994
  0
VERTEX
  8
HA_6291
 62
     4
 10
563040
 20
3248004
  0
VERTEX
  8
HA_6291
 62
     4
 10
563047
 20
3248020
  0
SEQEND
  0
POLYLINE
  8
HA_6291
  6
CONTINUOUS
 62
     4
 66
     1
  0
VERTEX
  8
HA_6291
 62
     4
 10
563500
 20
3248549
  0
VERTEX
  8
HA_6291
 62
     4
 10
563506
 20
3248557
  0
VERTEX
  8
HA_6291
 62
     4
 10
563520
 20
3248561
  0
SEQEND
  0
POLYLINE
  8
HA_6291
  6
CONTINUOUS
 62
     4
 66
     1
  0
VERTEX
  8
HA_6291
 62
     4
 10
562604
 20
3243877
  0
VERTEX
  8
HA_6291
 62
     4
 10
562601
 20
3243894
  0
VERTEX
  8
HA_6291
 62
     4
 10
562606
 20
3243912
  0
VERTEX
  8
HA_6291
 62
     4
 10
562619
 20
3243933
  0
SEQEND
  0
POLYLINE
  8
HA_6291
  6
CONTINUOUS
 62
     4
 66
     1
  0
VERTEX
  8
HA_6291
 62
     4
 10
557398
 20
3246978
  0
VERTEX
  8
HA_6291
 62
     4
 10
557401
 20
3246987
  0
VERTEX
  8
HA_6291
 62
     4
 10
557410
 20
3246991
  0
VERTEX
  8
HA_6291
 62
     4
 10
557424
 20
3246991
  0
VERTEX
  8
HA_6291
 62
     4
 10
557437
 20
3246984
  0
VERTEX
  8
HA_6291
 62
     4
 10
557446
 20
3246972
  0
VERTEX
  8
HA_6291
 62
     4
 10
557450
 20
3246958
  0
SEQEND
  0
POLYLINE
  8
HA_6291
  6
CONTINUOUS
 62
     4
 66
     1
  0
VERTEX
  8
HA_6291
 62
     4
 10
557145
 20
3248613
  0
VERTEX
  8
HA_6291
 62
     4
 10
557137
 20
3248630
  0
VERTEX
  8
HA_6291
 62
     4
 10
557137
 20
3248644
  0
VERTEX
  8
HA_6291
 62
     4
 10
557146
 20
3248655
  0
VERTEX
  8
HA_6291
 62
     4
 10
557156
 20
3248661
  0
SEQEND
  0
POLYLINE
  8
HA_6291
  6
CONTINUOUS
 62
     4
 66
     1
  0
VERTEX
  8
HA_6291
 62
     4
 10
557156
 20
3248661
  0
VERTEX
  8
HA_6291
 62
     4
 10
557171
 20
3248664
  0
VERTEX
  8
HA_6291
 62
     4
 10
557190
 20
3248659
  0
SEQEND
  0
POLYLINE
  8
HA_6291
  6
CONTINUOUS
 62
     4
 66
     1
  0
VERTEX
  8
HA_6291
 62
     4
 10
555182
 20
3249358
  0
VERTEX
  8
HA_6291
 62
     4
 10
555182
 20
3249345
  0
VERTEX
  8
HA_6291
 62
     4
 10
555184
 20
3249323
  0
VERTEX
  8
HA_6291
 62
     4
 10
555186
 20
3249310
  0
SEQEND
  0
POLYLINE
  8
HA_6291
  6
CONTINUOUS
 62
     4
 66
     1
  0
VERTEX
  8
HA_6291
 62
     4
 10
554261
 20
3249210
  0
VERTEX
  8
HA_6291
 62
     4
 10
554272
 20
3249187
  0
VERTEX
  8
HA_6291
 62
     4
 10
554277
 20
3249178
  0
SEQEND
  0
POLYLINE
  8
HA_6291
  6
CONTINUOUS
 62
     4
 66
     1
  0
VERTEX
  8
HA_6291
 62
     4
 10
554214
 20
3249267
  0
VERTEX
  8
HA_6291
 62
     4
 10
554227
 20
3249247
  0
VERTEX
  8
HA_6291
 62
     4
 10
554245
 20
3249227
  0
VERTEX
  8
HA_6291
 62
     4
 10
554261
 20
3249210
  0
SEQEND
  0
POLYLINE
  8
HA_6291
  6
CONTINUOUS
 62
     4
 66
     1
  0
VERTEX
  8
HA_6291
 62
     4
 10
561165
 20
3252357
  0
VERTEX
  8
HA_6291
 62
     4
 10
561158
 20
3252336
  0
VERTEX
  8
HA_6291
 62
     4
 10
561164
 20
3252313
  0
VERTEX
  8
HA_6291
 62
     4
 10
561172
 20
3252298
  0
SEQEND
  0
POLYLINE
  8
HA_6291
  6
CONTINUOUS
 62
     4
 66
     1
  0
VERTEX
  8
HA_6291
 62
     4
 10
561520
 20
3254432
  0
VERTEX
  8
HA_6291
 62
     4
 10
561541
 20
3254448
  0
VERTEX
  8
HA_6291
 62
     4
 10
561570
 20
3254467
  0
VERTEX
  8
HA_6291
 62
     4
 10
561595
 20
3254479
  0
VERTEX
  8
HA_6291
 62
     4
 10
561616
 20
3254485
  0
VERTEX
  8
HA_6291
 62
     4
 10
561635
 20
3254486
  0
SEQEND
  0
POLYLINE
  8
HA_6291
  6
CONTINUOUS
 62
     4
 66
     1
  0
VERTEX
  8
HA_6291
 62
     4
 10
563956
 20
3261439
  0
VERTEX
  8
HA_6291
 62
     4
 10
563977
 20
3261439
  0
VERTEX
  8
HA_6291
 62
     4
 10
563999
 20
3261444
  0
VERTEX
  8
HA_6291
 62
     4
 10
564020
 20
3261455
  0
VERTEX
  8
HA_6291
 62
     4
 10
564033
 20
3261462
  0
VERTEX
  8
HA_6291
 62
     4
 10
564040
 20
3261471
  0
SEQEND
  0
POLYLINE
  8
HA_6291
  6
CONTINUOUS
 62
     4
 66
     1
  0
VERTEX
  8
HA_6291
 62
     4
 10
563927
 20
3261476
  0
VERTEX
  8
HA_6291
 62
     4
 10
563924
 20
3261469
  0
VERTEX
  8
HA_6291
 62
     4
 10
563928
 20
3261456
  0
SEQEND
  0
POLYLINE
  8
HA_6291
  6
CONTINUOUS
 62
     4
 66
     1
  0
VERTEX
  8
HA_6291
 62
     4
 10
563928
 20
3261456
  0
VERTEX
  8
HA_6291
 62
     4
 10
563941
 20
3261445
  0
VERTEX
  8
HA_6291
 62
     4
 10
563956
 20
3261439
  0
SEQEND
  0
POLYLINE
  8
HA_6291
  6
CONTINUOUS
 62
     4
 66
     1
  0
VERTEX
  8
HA_6291
 62
     4
 10
562405
 20
3262411
  0
VERTEX
  8
HA_6291
 62
     4
 10
562357
 20
3262426
  0
VERTEX
  8
HA_6291
 62
     4
 10
562344
 20
3262445
  0
VERTEX
  8
HA_6291
 62
     4
 10
562342
 20
3262462
  0
VERTEX
  8
HA_6291
 62
     4
 10
562346
 20
3262477
  0
VERTEX
  8
HA_6291
 62
     4
 10
562355
 20
3262491
  0
VERTEX
  8
HA_6291
 62
     4
 10
562371
 20
3262499
  0
VERTEX
  8
HA_6291
 62
     4
 10
562386
 20
3262497
  0
VERTEX
  8
HA_6291
 62
     4
 10
562407
 20
3262484
  0
SEQEND
  0
POLYLINE
  8
HA_6291
  6
CONTINUOUS
 62
     4
 66
     1
  0
VERTEX
  8
HA_6291
 62
     4
 10
561992
 20
3261689
  0
VERTEX
  8
HA_6291
 62
     4
 10
562006
 20
3261672
  0
VERTEX
  8
HA_6291
 62
     4
 10
562021
 20
3261669
  0
VERTEX
  8
HA_6291
 62
     4
 10
562038
 20
3261668
  0
VERTEX
  8
HA_6291
 62
     4
 10
562050
 20
3261673
  0
VERTEX
  8
HA_6291
 62
     4
 10
562055
 20
3261683
  0
VERTEX
  8
HA_6291
 62
     4
 10
562058
 20
3261694
  0
SEQEND
  0
POLYLINE
  8
HA_6291
  6
CONTINUOUS
 62
     4
 66
     1
  0
VERTEX
  8
HA_6291
 62
     4
 10
558725
 20
3261479
  0
VERTEX
  8
HA_6291
 62
     4
 10
558746
 20
3261435
  0
VERTEX
  8
HA_6291
 62
     4
 10
558767
 20
3261405
  0
VERTEX
  8
HA_6291
 62
     4
 10
558790
 20
3261391
  0
VERTEX
  8
HA_6291
 62
     4
 10
558817
 20
3261383
  0
VERTEX
  8
HA_6291
 62
     4
 10
558838
 20
3261387
  0
VERTEX
  8
HA_6291
 62
     4
 10
558854
 20
3261395
  0
VERTEX
  8
HA_6291
 62
     4
 10
558861
 20
3261406
  0
VERTEX
  8
HA_6291
 62
     4
 10
558861
 20
3261422
  0
SEQEND
  0
POLYLINE
  8
HA_6291
  6
CONTINUOUS
 62
     4
 66
     1
  0
VERTEX
  8
HA_6291
 62
     4
 10
550364
 20
3261484
  0
VERTEX
  8
HA_6291
 62
     4
 10
550373
 20
3261500
  0
VERTEX
  8
HA_6291
 62
     4
 10
550382
 20
3261508
  0
SEQEND
  0
POLYLINE
  8
HA_6291
  6
CONTINUOUS
 62
     4
 66
     1
  0
VERTEX
  8
HA_6291
 62
     4
 10
550353
 20
3261430
  0
VERTEX
  8
HA_6291
 62
     4
 10
550357
 20
3261458
  0
VERTEX
  8
HA_6291
 62
     4
 10
550364
 20
3261484
  0
SEQEND
  0
POLYLINE
  8
HA_6291
  6
CONTINUOUS
 62
     4
 66
     1
  0
VERTEX
  8
HA_6291
 62
     4
 10
550298
 20
3261432
  0
VERTEX
  8
HA_6291
 62
     4
 10
550312
 20
3261429
  0
VERTEX
  8
HA_6291
 62
     4
 10
550329
 20
3261430
  0
VERTEX
  8
HA_6291
 62
     4
 10
550353
 20
3261430
  0
SEQEND
  0
POLYLINE
  8
HA_6291
  6
CONTINUOUS
 62
     4
 66
     1
  0
VERTEX
  8
HA_6291
 62
     4
 10
549003
 20
3259663
  0
VERTEX
  8
HA_6291
 62
     4
 10
549038
 20
3259682
  0
VERTEX
  8
HA_6291
 62
     4
 10
549055
 20
3259692
  0
VERTEX
  8
HA_6291
 62
     4
 10
549065
 20
3259705
  0
VERTEX
  8
HA_6291
 62
     4
 10
549067
 20
3259715
  0
VERTEX
  8
HA_6291
 62
     4
 10
549059
 20
3259729
  0
VERTEX
  8
HA_6291
 62
     4
 10
549040
 20
3259751
  0
VERTEX
  8
HA_6291
 62
     4
 10
549022
 20
3259759
  0
SEQEND
  0
POLYLINE
  8
HA_6291
  6
CONTINUOUS
 62
     4
 66
     1
  0
VERTEX
  8
HA_6291
 62
     4
 10
544853
 20
3262383
  0
VERTEX
  8
HA_6291
 62
     4
 10
544860
 20
3262399
  0
VERTEX
  8
HA_6291
 62
     4
 10
544863
 20
3262420
  0
SEQEND
  0
POLYLINE
  8
HA_6291
  6
CONTINUOUS
 62
     4
 66
     1
  0
VERTEX
  8
HA_6291
 62
     4
 10
544852
 20
3262457
  0
VERTEX
  8
HA_6291
 62
     4
 10
544860
 20
3262435
  0
VERTEX
  8
HA_6291
 62
     4
 10
544863
 20
3262420
  0
SEQEND
  0
POLYLINE
  8
HA_6291
  6
CONTINUOUS
 62
     4
 66
     1
  0
VERTEX
  8
HA_6291
 62
     4
 10
539156
 20
3261908
  0
VERTEX
  8
HA_6291
 62
     4
 10
539180
 20
3261910
  0
VERTEX
  8
HA_6291
 62
     4
 10
539199
 20
3261913
  0
SEQEND
  0
POLYLINE
  8
HA_6291
  6
CONTINUOUS
 62
     4
 66
     1
  0
VERTEX
  8
HA_6291
 62
     4
 10
539114
 20
3261929
  0
VERTEX
  8
HA_6291
 62
     4
 10
539117
 20
3261922
  0
VERTEX
  8
HA_6291
 62
     4
 10
539123
 20
3261918
  0
VERTEX
  8
HA_6291
 62
     4
 10
539137
 20
3261912
  0
VERTEX
  8
HA_6291
 62
     4
 10
539156
 20
3261908
  0
SEQEND
  0
POLYLINE
  8
HA_6291
  6
CONTINUOUS
 62
     4
 66
     1
  0
VERTEX
  8
HA_6291
 62
     4
 10
541232
 20
3248719
  0
VERTEX
  8
HA_6291
 62
     4
 10
541259
 20
3248708
  0
VERTEX
  8
HA_6291
 62
     4
 10
541283
 20
3248702
  0
SEQEND
  0
POLYLINE
  8
HA_6291
  6
CONTINUOUS
 62
     4
 66
     1
  0
VERTEX
  8
HA_6291
 62
     4
 10
541033
 20
3248201
  0
VERTEX
  8
HA_6291
 62
     4
 10
541042
 20
3248223
  0
VERTEX
  8
HA_6291
 62
     4
 10
541046
 20
3248227
  0
VERTEX
  8
HA_6291
 62
     4
 10
541053
 20
3248235
  0
VERTEX
  8
HA_6291
 62
     4
 10
541064
 20
3248240
  0
SEQEND
  0
POLYLINE
  8
HA_6291
  6
CONTINUOUS
 62
     4
 66
     1
  0
VERTEX
  8
HA_6291
 62
     4
 10
539215
 20
3248494
  0
VERTEX
  8
HA_6291
 62
     4
 10
539232
 20
3248502
  0
VERTEX
  8
HA_6291
 62
     4
 10
539242
 20
3248509
  0
SEQEND
  0
POLYLINE
  8
HA_6291
  6
CONTINUOUS
 62
     4
 66
     1
  0
VERTEX
  8
HA_6291
 62
     4
 10
537701
 20
3253691
  0
VERTEX
  8
HA_6291
 62
     4
 10
537707
 20
3253714
  0
VERTEX
  8
HA_6291
 62
     4
 10
537717
 20
3253732
  0
SEQEND
  0
POLYLINE
  8
HA_6291
  6
CONTINUOUS
 62
     4
 66
     1
  0
VERTEX
  8
HA_6291
 62
     4
 10
537687
 20
3253635
  0
VERTEX
  8
HA_6291
 62
     4
 10
537689
 20
3253662
  0
VERTEX
  8
HA_6291
 62
     4
 10
537701
 20
3253691
  0
SEQEND
  0
POLYLINE
  8
HA_6291
  6
CONTINUOUS
 62
     4
 66
     1
  0
VERTEX
  8
HA_6291
 62
     4
 10
536194
 20
3254125
  0
VERTEX
  8
HA_6291
 62
     4
 10
536176
 20
3254141
  0
VERTEX
  8
HA_6291
 62
     4
 10
536160
 20
3254169
  0
VERTEX
  8
HA_6291
 62
     4
 10
536155
 20
3254187
  0
VERTEX
  8
HA_6291
 62
     4
 10
536157
 20
3254206
  0
VERTEX
  8
HA_6291
 62
     4
 10
536167
 20
3254240
  0
VERTEX
  8
HA_6291
 62
     4
 10
536175
 20
3254261
  0
VERTEX
  8
HA_6291
 62
     4
 10
536197
 20
3254277
  0
SEQEND
  0
POLYLINE
  8
HA_6291
  6
CONTINUOUS
 62
     4
 66
     1
  0
VERTEX
  8
HA_6291
 62
     4
 10
534165
 20
3251430
  0
VERTEX
  8
HA_6291
 62
     4
 10
534190
 20
3251424
  0
VERTEX
  8
HA_6291
 62
     4
 10
534208
 20
3251423
  0
SEQEND
  0
POLYLINE
  8
HA_6291
  6
CONTINUOUS
 62
     4
 66
     1
  0
VERTEX
  8
HA_6291
 62
     4
 10
542933
 20
3237737
  0
VERTEX
  8
HA_6291
 62
     4
 10
542934
 20
3237757
  0
VERTEX
  8
HA_6291
 62
     4
 10
542942
 20
3237770
  0
VERTEX
  8
HA_6291
 62
     4
 10
542962
 20
3237786
  0
SEQEND
  0
POLYLINE
  8
HA_6291
  6
CONTINUOUS
 62
     4
 66
     1
  0
VERTEX
  8
HA_6291
 62
     4
 10
532560
 20
3259602
  0
VERTEX
  8
HA_6291
 62
     4
 10
532559
 20
3259617
  0
VERTEX
  8
HA_6291
 62
     4
 10
532560
 20
3259641
  0
SEQEND
  0
POLYLINE
  8
HA_6291
  6
CONTINUOUS
 62
     4
 66
     1
  0
VERTEX
  8
HA_6291
 62
     4
 10
561165
 20
3252357
  0
VERTEX
  8
HA_6291
 62
     4
 10
561177.16
 20
3252372.5
  0
SEQEND
  0
POLYLINE
  8
HA_6291
  6
CONTINUOUS
 62
     4
 66
     1
  0
VERTEX
  8
HA_6291
 62
     4
 10
561177.16
 20
3252372.5
  0
VERTEX
  8
HA_6291
 62
     4
 10
561198
 20
3252359
  0
VERTEX
  8
HA_6291
 62
     4
 10
561206
 20
3252349
  0
VERTEX
  8
HA_6291
 62
     4
 10
561204
 20
3252333
  0
SEQEND
  0
POLYLINE
  8
HA_6291
  6
CONTINUOUS
 62
     4
 66
     1
  0
VERTEX
  8
HA_6291
 62
     4
 10
543682
 20
3261935
  0
VERTEX
  8
HA_6291
 62
     4
 10
543695
 20
3261922
  0
VERTEX
  8
HA_6291
 62
     4
 10
543703
 20
3261915
  0
VERTEX
  8
HA_6291
 62
     4
 10
543715
 20
3261913
  0
SEQEND
  0
POLYLINE
  8
HA_6291
  6
CONTINUOUS
 62
     4
 66
     1
  0
VERTEX
  8
HA_6291
 62
     4
 10
543715
 20
3261913
  0
VERTEX
  8
HA_6291
 62
     4
 10
543722
 20
3261920
  0
VERTEX
  8
HA_6291
 62
     4
 10
543740
 20
3261931
  0
SEQEND
  0
POLYLINE
  8
HA_6291
  6
CONTINUOUS
 62
     4
 66
     1
  0
VERTEX
  8
HA_6291
 62
     4
 10
543740
 20
3261931
  0
VERTEX
  8
HA_6291
 62
     4
 10
543732
 20
3261947
  0
VERTEX
  8
HA_6291
 62
     4
 10
543733
 20
3261966
  0
VERTEX
  8
HA_6291
 62
     4
 10
543725
 20
3261976
  0
VERTEX
  8
HA_6291
 62
     4
 10
543714
 20
3261981
  0
VERTEX
  8
HA_6291
 62
     4
 10
543700
 20
3261985
  0
VERTEX
  8
HA_6291
 62
     4
 10
543688
 20
3261980
  0
SEQEND
  0
POLYLINE
  8
HA_6291
  6
CONTINUOUS
 62
     4
 66
     1
  0
VERTEX
  8
HA_6291
 62
     4
 10
543688
 20
3261980
  0
VERTEX
  8
HA_6291
 62
     4
 10
543678
 20
3261970
  0
VERTEX
  8
HA_6291
 62
     4
 10
543677
 20
3261960
  0
VERTEX
  8
HA_6291
 62
     4
 10
543678
 20
3261947
  0
VERTEX
  8
HA_6291
 62
     4
 10
543682
 20
3261935
  0
SEQEND
  0
POLYLINE
  8
HA_6292
  6
CONTINUOUS
 62
     3
 66
     1
  0
VERTEX
  8
HA_6292
 62
     3
 10
542372
 20
3244157
  0
VERTEX
  8
HA_6292
 62
     3
 10
542397
 20
3244167
  0
VERTEX
  8
HA_6292
 62
     3
 10
542421
 20
3244177
  0
VERTEX
  8
HA_6292
 62
     3
 10
542443
 20
3244190
  0
VERTEX
  8
HA_6292
 62
     3
 10
542466
 20
3244205
  0
SEQEND
  0
POLYLINE
  8
HA_6292
  6
CONTINUOUS
 62
     3
 66
     1
  0
VERTEX
  8
HA_6292
 62
     3
 10
549739
 20
3249335
  0
VERTEX
  8
HA_6292
 62
     3
 10
549748
 20
3249343
  0
VERTEX
  8
HA_6292
 62
     3
 10
549769
 20
3249358
  0
VERTEX
  8
HA_6292
 62
     3
 10
549784
 20
3249365
  0
SEQEND
  0
POLYLINE
  8
HA_6292
  6
CONTINUOUS
 62
     3
 66
     1
  0
VERTEX
  8
HA_6292
 62
     3
 10
543849
 20
3243490
  0
VERTEX
  8
HA_6292
 62
     3
 10
543777
 20
3243484
  0
VERTEX
  8
HA_6292
 62
     3
 10
543735
 20
3243499
  0
VERTEX
  8
HA_6292
 62
     3
 10
543691
 20
3243507
  0
VERTEX
  8
HA_6292
 62
     3
 10
543630
 20
3243523
  0
VERTEX
  8
HA_6292
 62
     3
 10
543584
 20
3243539
  0
VERTEX
  8
HA_6292
 62
     3
 10
543568
 20
3243542
  0
SEQEND
  0
POLYLINE
  8
HA_6292
  6
CONTINUOUS
 62
     3
 66
     1
  0
VERTEX
  8
HA_6292
 62
     3
 10
541433
 20
3243964
  0
VERTEX
  8
HA_6292
 62
     3
 10
541412
 20
3243951
  0
VERTEX
  8
HA_6292
 62
     3
 10
541367
 20
3243955
  0
VERTEX
  8
HA_6292
 62
     3
 10
541249
 20
3243952
  0
VERTEX
  8
HA_6292
 62
     3
 10
541193
 20
3243928
  0
VERTEX
  8
HA_6292
 62
     3
 10
541169
 20
3243886
  0
VERTEX
  8
HA_6292
 62
     3
 10
541162
 20
3243850
  0
VERTEX
  8
HA_6292
 62
     3
 10
541183
 20
3243816
  0
VERTEX
  8
HA_6292
 62
     3
 10
541199
 20
3243778
  0
VERTEX
  8
HA_6292
 62
     3
 10
541220
 20
3243738
  0
VERTEX
  8
HA_6292
 62
     3
 10
541247
 20
3243703
  0
VERTEX
  8
HA_6292
 62
     3
 10
541270
 20
3243672
  0
VERTEX
  8
HA_6292
 62
     3
 10
541283
 20
3243613
  0
VERTEX
  8
HA_6292
 62
     3
 10
541288
 20
3243556
  0
VERTEX
  8
HA_6292
 62
     3
 10
541290
 20
3243516
  0
SEQEND
  0
POLYLINE
  8
HA_6292
  6
CONTINUOUS
 62
     3
 66
     1
  0
VERTEX
  8
HA_6292
 62
     3
 10
546431
 20
3247584
  0
VERTEX
  8
HA_6292
 62
     3
 10
546430
 20
3247548
  0
VERTEX
  8
HA_6292
 62
     3
 10
546438
 20
3247523
  0
VERTEX
  8
HA_6292
 62
     3
 10
546432
 20
3247433
  0
VERTEX
  8
HA_6292
 62
     3
 10
546434
 20
3247385
  0
VERTEX
  8
HA_6292
 62
     3
 10
546428
 20
3247335
  0
VERTEX
  8
HA_6292
 62
     3
 10
546428
 20
3247279
  0
VERTEX
  8
HA_6292
 62
     3
 10
546430
 20
3247201
  0
VERTEX
  8
HA_6292
 62
     3
 10
546435
 20
3247159
  0
VERTEX
  8
HA_6292
 62
     3
 10
546450
 20
3247114
  0
VERTEX
  8
HA_6292
 62
     3
 10
546449
 20
3247060
  0
VERTEX
  8
HA_6292
 62
     3
 10
546455
 20
3247014
  0
VERTEX
  8
HA_6292
 62
     3
 10
546467
 20
3246998
  0
SEQEND
  0
POLYLINE
  8
HA_6292
  6
CONTINUOUS
 62
     3
 66
     1
  0
VERTEX
  8
HA_6292
 62
     3
 10
544518
 20
3243620
  0
VERTEX
  8
HA_6292
 62
     3
 10
544597
 20
3243675
  0
VERTEX
  8
HA_6292
 62
     3
 10
544668
 20
3243731
  0
VERTEX
  8
HA_6292
 62
     3
 10
544726
 20
3243769
  0
SEQEND
  0
POLYLINE
  8
HA_6292
  6
CONTINUOUS
 62
     3
 66
     1
  0
VERTEX
  8
HA_6292
 62
     3
 10
543568
 20
3243542
  0
VERTEX
  8
HA_6292
 62
     3
 10
543544
 20
3243547
  0
VERTEX
  8
HA_6292
 62
     3
 10
543517
 20
3243561
  0
VERTEX
  8
HA_6292
 62
     3
 10
543491
 20
3243575
  0
VERTEX
  8
HA_6292
 62
     3
 10
543466
 20
3243582
  0
VERTEX
  8
HA_6292
 62
     3
 10
543425
 20
3243612
  0
VERTEX
  8
HA_6292
 62
     3
 10
543393
 20
3243653
  0
VERTEX
  8
HA_6292
 62
     3
 10
543346
 20
3243707
  0
VERTEX
  8
HA_6292
 62
     3
 10
543315
 20
3243728
  0
SEQEND
  0
POLYLINE
  8
HA_6292
  6
CONTINUOUS
 62
     3
 66
     1
  0
VERTEX
  8
HA_6292
 62
     3
 10
543042
 20
3243946
  0
VERTEX
  8
HA_6292
 62
     3
 10
543104
 20
3243873
  0
VERTEX
  8
HA_6292
 62
     3
 10
543158
 20
3243816
  0
VERTEX
  8
HA_6292
 62
     3
 10
543239
 20
3243750
  0
VERTEX
  8
HA_6292
 62
     3
 10
543277
 20
3243741
  0
VERTEX
  8
HA_6292
 62
     3
 10
543315
 20
3243728
  0
SEQEND
  0
POLYLINE
  8
HA_6292
  6
CONTINUOUS
 62
     3
 66
     1
  0
VERTEX
  8
HA_6292
 62
     3
 10
548566
 20
3248293
  0
VERTEX
  8
HA_6292
 62
     3
 10
548584
 20
3248293
  0
VERTEX
  8
HA_6292
 62
     3
 10
548608
 20
3248278
  0
VERTEX
  8
HA_6292
 62
     3
 10
548641
 20
3248270
  0
VERTEX
  8
HA_6292
 62
     3
 10
548675
 20
3248273
  0
VERTEX
  8
HA_6292
 62
     3
 10
548714
 20
3248280
  0
VERTEX
  8
HA_6292
 62
     3
 10
548742
 20
3248289
  0
VERTEX
  8
HA_6292
 62
     3
 10
548782
 20
3248298
  0
VERTEX
  8
HA_6292
 62
     3
 10
548824
 20
3248309
  0
VERTEX
  8
HA_6292
 62
     3
 10
548862
 20
3248311
  0
VERTEX
  8
HA_6292
 62
     3
 10
548903
 20
3248313
  0
VERTEX
  8
HA_6292
 62
     3
 10
548939
 20
3248321
  0
VERTEX
  8
HA_6292
 62
     3
 10
548978
 20
3248340
  0
VERTEX
  8
HA_6292
 62
     3
 10
549017
 20
3248379
  0
VERTEX
  8
HA_6292
 62
     3
 10
549055
 20
3248406
  0
VERTEX
  8
HA_6292
 62
     3
 10
549099
 20
3248439
  0
VERTEX
  8
HA_6292
 62
     3
 10
549141
 20
3248456
  0
VERTEX
  8
HA_6292
 62
     3
 10
549201
 20
3248500
  0
VERTEX
  8
HA_6292
 62
     3
 10
549239
 20
3248533
  0
VERTEX
  8
HA_6292
 62
     3
 10
549283
 20
3248578
  0
VERTEX
  8
HA_6292
 62
     3
 10
549340
 20
3248659
  0
VERTEX
  8
HA_6292
 62
     3
 10
549365
 20
3248722
  0
SEQEND
  0
POLYLINE
  8
HA_6292
  6
CONTINUOUS
 62
     3
 66
     1
  0
VERTEX
  8
HA_6292
 62
     3
 10
546467
 20
3246998
  0
VERTEX
  8
HA_6292
 62
     3
 10
546468
 20
3247021
  0
VERTEX
  8
HA_6292
 62
     3
 10
546464
 20
3247054
  0
VERTEX
  8
HA_6292
 62
     3
 10
546461
 20
3247127
  0
VERTEX
  8
HA_6292
 62
     3
 10
546461
 20
3247174
  0
VERTEX
  8
HA_6292
 62
     3
 10
546471
 20
3247205
  0
VERTEX
  8
HA_6292
 62
     3
 10
546475
 20
3247229
  0
VERTEX
  8
HA_6292
 62
     3
 10
546471
 20
3247255
  0
VERTEX
  8
HA_6292
 62
     3
 10
546469
 20
3247283
  0
VERTEX
  8
HA_6292
 62
     3
 10
546470
 20
3247308
  0
VERTEX
  8
HA_6292
 62
     3
 10
546471
 20
3247337
  0
VERTEX
  8
HA_6292
 62
     3
 10
546468
 20
3247390
  0
VERTEX
  8
HA_6292
 62
     3
 10
546468
 20
3247416
  0
VERTEX
  8
HA_6292
 62
     3
 10
546474
 20
3247474
  0
VERTEX
  8
HA_6292
 62
     3
 10
546475
 20
3247527
  0
VERTEX
  8
HA_6292
 62
     3
 10
546474
 20
3247550
  0
SEQEND
  0
POLYLINE
  8
HA_6292
  6
CONTINUOUS
 62
     3
 66
     1
  0
VERTEX
  8
HA_6292
 62
     3
 10
543293
 20
3243774
  0
VERTEX
  8
HA_6292
 62
     3
 10
543318
 20
3243755
  0
VERTEX
  8
HA_6292
 62
     3
 10
543364
 20
3243718
  0
VERTEX
  8
HA_6292
 62
     3
 10
543403
 20
3243680
  0
VERTEX
  8
HA_6292
 62
     3
 10
543437
 20
3243645
  0
VERTEX
  8
HA_6292
 62
     3
 10
543475
 20
3243618
  0
VERTEX
  8
HA_6292
 62
     3
 10
543526
 20
3243591
  0
VERTEX
  8
HA_6292
 62
     3
 10
543575
 20
3243572
  0
VERTEX
  8
HA_6292
 62
     3
 10
543647
 20
3243552
  0
VERTEX
  8
HA_6292
 62
     3
 10
543710
 20
3243540
  0
VERTEX
  8
HA_6292
 62
     3
 10
543754
 20
3243532
  0
VERTEX
  8
HA_6292
 62
     3
 10
543824
 20
3243521
  0
VERTEX
  8
HA_6292
 62
     3
 10
543843
 20
3243512
  0
VERTEX
  8
HA_6292
 62
     3
 10
543849
 20
3243490
  0
SEQEND
  0
POLYLINE
  8
HA_6292
  6
CONTINUOUS
 62
     3
 66
     1
  0
VERTEX
  8
HA_6292
 62
     3
 10
543034
 20
3243967
  0
VERTEX
  8
HA_6292
 62
     3
 10
543042
 20
3243946
  0
SEQEND
  0
POLYLINE
  8
HA_6292
  6
CONTINUOUS
 62
     3
 66
     1
  0
VERTEX
  8
HA_6292
 62
     3
 10
541135
 20
3243334
  0
VERTEX
  8
HA_6292
 62
     3
 10
541154
 20
3243352
  0
VERTEX
  8
HA_6292
 62
     3
 10
541228
 20
3243438
  0
VERTEX
  8
HA_6292
 62
     3
 10
541259
 20
3243466
  0
VERTEX
  8
HA_6292
 62
     3
 10
541267
 20
3243496
  0
VERTEX
  8
HA_6292
 62
     3
 10
541274
 20
3243543
  0
VERTEX
  8
HA_6292
 62
     3
 10
541270
 20
3243595
  0
VERTEX
  8
HA_6292
 62
     3
 10
541252
 20
3243637
  0
VERTEX
  8
HA_6292
 62
     3
 10
541240
 20
3243685
  0
VERTEX
  8
HA_6292
 62
     3
 10
541224
 20
3243706
  0
SEQEND
  0
POLYLINE
  8
HA_6292
  6
CONTINUOUS
 62
     3
 66
     1
  0
VERTEX
  8
HA_6292
 62
     3
 10
549365
 20
3248722
  0
VERTEX
  8
HA_6292
 62
     3
 10
549425
 20
3248807
  0
VERTEX
  8
HA_6292
 62
     3
 10
549454
 20
3248849
  0
VERTEX
  8
HA_6292
 62
     3
 10
549475
 20
3248900
  0
VERTEX
  8
HA_6292
 62
     3
 10
549493
 20
3248987
  0
VERTEX
  8
HA_6292
 62
     3
 10
549493
 20
3249017
  0
VERTEX
  8
HA_6292
 62
     3
 10
549483
 20
3249043
  0
VERTEX
  8
HA_6292
 62
     3
 10
549485
 20
3249088
  0
VERTEX
  8
HA_6292
 62
     3
 10
549501
 20
3249118
  0
VERTEX
  8
HA_6292
 62
     3
 10
549529
 20
3249155
  0
VERTEX
  8
HA_6292
 62
     3
 10
549569
 20
3249200
  0
VERTEX
  8
HA_6292
 62
     3
 10
549601
 20
3249259
  0
VERTEX
  8
HA_6292
 62
     3
 10
549608
 20
3249275
  0
SEQEND
  0
POLYLINE
  8
HA_6292
  6
CONTINUOUS
 62
     3
 66
     1
  0
VERTEX
  8
HA_6292
 62
     3
 10
547409
 20
3248359
  0
VERTEX
  8
HA_6292
 62
     3
 10
547428
 20
3248351
  0
VERTEX
  8
HA_6292
 62
     3
 10
547480
 20
3248329
  0
VERTEX
  8
HA_6292
 62
     3
 10
547535
 20
3248311
  0
VERTEX
  8
HA_6292
 62
     3
 10
547613
 20
3248286
  0
SEQEND
  0
POLYLINE
  8
HA_6292
  6
CONTINUOUS
 62
     3
 66
     1
  0
VERTEX
  8
HA_6292
 62
     3
 10
542568
 20
3244205
  0
VERTEX
  8
HA_6292
 62
     3
 10
542610
 20
3244213
  0
VERTEX
  8
HA_6292
 62
     3
 10
542692
 20
3244220
  0
VERTEX
  8
HA_6292
 62
     3
 10
542762
 20
3244228
  0
VERTEX
  8
HA_6292
 62
     3
 10
542792
 20
3244220
  0
VERTEX
  8
HA_6292
 62
     3
 10
542817
 20
3244209
  0
VERTEX
  8
HA_6292
 62
     3
 10
542853
 20
3244180
  0
VERTEX
  8
HA_6292
 62
     3
 10
542901
 20
3244133
  0
VERTEX
  8
HA_6292
 62
     3
 10
542979
 20
3244050
  0
VERTEX
  8
HA_6292
 62
     3
 10
543019
 20
3244001
  0
VERTEX
  8
HA_6292
 62
     3
 10
543034
 20
3243967
  0
SEQEND
  0
POLYLINE
  8
HA_6292
  6
CONTINUOUS
 62
     3
 66
     1
  0
VERTEX
  8
HA_6292
 62
     3
 10
545685
 20
3245399
  0
VERTEX
  8
HA_6292
 62
     3
 10
545693
 20
3245401
  0
VERTEX
  8
HA_6292
 62
     3
 10
545703
 20
3245429
  0
VERTEX
  8
HA_6292
 62
     3
 10
545721
 20
3245452
  0
VERTEX
  8
HA_6292
 62
     3
 10
545739
 20
3245486
  0
VERTEX
  8
HA_6292
 62
     3
 10
545796
 20
3245557
  0
VERTEX
  8
HA_6292
 62
     3
 10
545817
 20
3245585
  0
VERTEX
  8
HA_6292
 62
     3
 10
545844
 20
3245610
  0
VERTEX
  8
HA_6292
 62
     3
 10
545875
 20
3245626
  0
VERTEX
  8
HA_6292
 62
     3
 10
545900
 20
3245633
  0
VERTEX
  8
HA_6292
 62
     3
 10
545926
 20
3245641
  0
VERTEX
  8
HA_6292
 62
     3
 10
545953
 20
3245652
  0
VERTEX
  8
HA_6292
 62
     3
 10
545974
 20
3245655
  0
VERTEX
  8
HA_6292
 62
     3
 10
545999
 20
3245646
  0
VERTEX
  8
HA_6292
 62
     3
 10
546030
 20
3245652
  0
VERTEX
  8
HA_6292
 62
     3
 10
546052
 20
3245662
  0
VERTEX
  8
HA_6292
 62
     3
 10
546075
 20
3245668
  0
SEQEND
  0
POLYLINE
  8
HA_6292
  6
CONTINUOUS
 62
     3
 66
     1
  0
VERTEX
  8
HA_6292
 62
     3
 10
548836
 20
3248283
  0
VERTEX
  8
HA_6292
 62
     3
 10
548870
 20
3248289
  0
VERTEX
  8
HA_6292
 62
     3
 10
548903
 20
3248291
  0
VERTEX
  8
HA_6292
 62
     3
 10
548955
 20
3248292
  0
VERTEX
  8
HA_6292
 62
     3
 10
548969
 20
3248297
  0
VERTEX
  8
HA_6292
 62
     3
 10
548978
 20
3248305
  0
VERTEX
  8
HA_6292
 62
     3
 10
549013
 20
3248339
  0
VERTEX
  8
HA_6292
 62
     3
 10
549034
 20
3248364
  0
VERTEX
  8
HA_6292
 62
     3
 10
549057
 20
3248387
  0
SEQEND
  0
POLYLINE
  8
HA_6292
  6
CONTINUOUS
 62
     3
 66
     1
  0
VERTEX
  8
HA_6292
 62
     3
 10
541224
 20
3243706
  0
VERTEX
  8
HA_6292
 62
     3
 10
541210
 20
3243724
  0
VERTEX
  8
HA_6292
 62
     3
 10
541180
 20
3243783
  0
VERTEX
  8
HA_6292
 62
     3
 10
541154
 20
3243816
  0
VERTEX
  8
HA_6292
 62
     3
 10
541145
 20
3243856
  0
VERTEX
  8
HA_6292
 62
     3
 10
541145
 20
3243889
  0
VERTEX
  8
HA_6292
 62
     3
 10
541159
 20
3243913
  0
SEQEND
  0
POLYLINE
  8
HA_6292
  6
CONTINUOUS
 62
     3
 66
     1
  0
VERTEX
  8
HA_6292
 62
     3
 10
545339
 20
3244823
  0
VERTEX
  8
HA_6292
 62
     3
 10
545344
 20
3244784
  0
VERTEX
  8
HA_6292
 62
     3
 10
545349
 20
3244729
  0
VERTEX
  8
HA_6292
 62
     3
 10
545329
 20
3244639
  0
VERTEX
  8
HA_6292
 62
     3
 10
545305
 20
3244541
  0
VERTEX
  8
HA_6292
 62
     3
 10
545275
 20
3244426
  0
VERTEX
  8
HA_6292
 62
     3
 10
545253
 20
3244325
  0
VERTEX
  8
HA_6292
 62
     3
 10
545238
 20
3244262
  0
SEQEND
  0
POLYLINE
  8
HA_6292
  6
CONTINUOUS
 62
     3
 66
     1
  0
VERTEX
  8
HA_6292
 62
     3
 10
541290
 20
3243516
  0
VERTEX
  8
HA_6292
 62
     3
 10
541291
 20
3243492
  0
VERTEX
  8
HA_6292
 62
     3
 10
541283
 20
3243460
  0
VERTEX
  8
HA_6292
 62
     3
 10
541247
 20
3243430
  0
VERTEX
  8
HA_6292
 62
     3
 10
541207
 20
3243370
  0
VERTEX
  8
HA_6292
 62
     3
 10
541184
 20
3243342
  0
VERTEX
  8
HA_6292
 62
     3
 10
541171
 20
3243324
  0
VERTEX
  8
HA_6292
 62
     3
 10
541159
 20
3243295
  0
VERTEX
  8
HA_6292
 62
     3
 10
541133
 20
3243267
  0
VERTEX
  8
HA_6292
 62
     3
 10
541109
 20
3243237
  0
VERTEX
  8
HA_6292
 62
     3
 10
541088
 20
3243153
  0
VERTEX
  8
HA_6292
 62
     3
 10
541088
 20
3243118
  0
SEQEND
  0
POLYLINE
  8
HA_6292
  6
CONTINUOUS
 62
     3
 66
     1
  0
VERTEX
  8
HA_6292
 62
     3
 10
546517
 20
3248120
  0
VERTEX
  8
HA_6292
 62
     3
 10
546535
 20
3248144
  0
VERTEX
  8
HA_6292
 62
     3
 10
546546
 20
3248171
  0
VERTEX
  8
HA_6292
 62
     3
 10
546546
 20
3248207
  0
VERTEX
  8
HA_6292
 62
     3
 10
546555
 20
3248253
  0
VERTEX
  8
HA_6292
 62
     3
 10
546558
 20
3248295
  0
VERTEX
  8
HA_6292
 62
     3
 10
546568
 20
3248311
  0
VERTEX
  8
HA_6292
 62
     3
 10
546605
 20
3248341
  0
VERTEX
  8
HA_6292
 62
     3
 10
546669
 20
3248379
  0
VERTEX
  8
HA_6292
 62
     3
 10
546702
 20
3248378
  0
VERTEX
  8
HA_6292
 62
     3
 10
546729
 20
3248389
  0
VERTEX
  8
HA_6292
 62
     3
 10
546767
 20
3248394
  0
VERTEX
  8
HA_6292
 62
     3
 10
546811
 20
3248397
  0
VERTEX
  8
HA_6292
 62
     3
 10
546855
 20
3248398
  0
VERTEX
  8
HA_6292
 62
     3
 10
546893
 20
3248397
  0
VERTEX
  8
HA_6292
 62
     3
 10
546925
 20
3248406
  0
VERTEX
  8
HA_6292
 62
     3
 10
546962
 20
3248421
  0
VERTEX
  8
HA_6292
 62
     3
 10
547003
 20
3248428
  0
VERTEX
  8
HA_6292
 62
     3
 10
547042
 20
3248428
  0
VERTEX
  8
HA_6292
 62
     3
 10
547060
 20
3248438
  0
VERTEX
  8
HA_6292
 62
     3
 10
547095
 20
3248444
  0
VERTEX
  8
HA_6292
 62
     3
 10
547143
 20
3248447
  0
VERTEX
  8
HA_6292
 62
     3
 10
547175
 20
3248454
  0
VERTEX
  8
HA_6292
 62
     3
 10
547220
 20
3248452
  0
VERTEX
  8
HA_6292
 62
     3
 10
547251
 20
3248448
  0
VERTEX
  8
HA_6292
 62
     3
 10
547282
 20
3248443
  0
VERTEX
  8
HA_6292
 62
     3
 10
547301
 20
3248430
  0
VERTEX
  8
HA_6292
 62
     3
 10
547325
 20
3248410
  0
VERTEX
  8
HA_6292
 62
     3
 10
547340
 20
3248394
  0
VERTEX
  8
HA_6292
 62
     3
 10
547371
 20
3248376
  0
VERTEX
  8
HA_6292
 62
     3
 10
547409
 20
3248359
  0
SEQEND
  0
POLYLINE
  8
HA_6292
  6
CONTINUOUS
 62
     3
 66
     1
  0
VERTEX
  8
HA_6292
 62
     3
 10
548169
 20
3248191
  0
VERTEX
  8
HA_6292
 62
     3
 10
548198
 20
3248204
  0
VERTEX
  8
HA_6292
 62
     3
 10
548230
 20
3248214
  0
SEQEND
  0
POLYLINE
  8
HA_6292
  6
CONTINUOUS
 62
     3
 66
     1
  0
VERTEX
  8
HA_6292
 62
     3
 10
541065
 20
3243032
  0
VERTEX
  8
HA_6292
 62
     3
 10
541054
 20
3243102
  0
VERTEX
  8
HA_6292
 62
     3
 10
541063
 20
3243162
  0
VERTEX
  8
HA_6292
 62
     3
 10
541085
 20
3243237
  0
VERTEX
  8
HA_6292
 62
     3
 10
541114
 20
3243276
  0
VERTEX
  8
HA_6292
 62
     3
 10
541121
 20
3243315
  0
VERTEX
  8
HA_6292
 62
     3
 10
541135
 20
3243334
  0
SEQEND
  0
POLYLINE
  8
HA_6292
  6
CONTINUOUS
 62
     3
 66
     1
  0
VERTEX
  8
HA_6292
 62
     3
 10
541236
 20
3243969
  0
VERTEX
  8
HA_6292
 62
     3
 10
541246
 20
3243972
  0
VERTEX
  8
HA_6292
 62
     3
 10
541291
 20
3243973
  0
VERTEX
  8
HA_6292
 62
     3
 10
541382
 20
3243970
  0
VERTEX
  8
HA_6292
 62
     3
 10
541433
 20
3243964
  0
SEQEND
  0
POLYLINE
  8
HA_6292
  6
CONTINUOUS
 62
     3
 66
     1
  0
VERTEX
  8
HA_6292
 62
     3
 10
546495
 20
3248127
  0
VERTEX
  8
HA_6292
 62
     3
 10
546485
 20
3248075
  0
SEQEND
  0
POLYLINE
  8
HA_6292
  6
CONTINUOUS
 62
     3
 66
     1
  0
VERTEX
  8
HA_6292
 62
     3
 10
550447
 20
3249697
  0
VERTEX
  8
HA_6292
 62
     3
 10
550401
 20
3249691
  0
VERTEX
  8
HA_6292
 62
     3
 10
550343
 20
3249662
  0
VERTEX
  8
HA_6292
 62
     3
 10
550244
 20
3249614
  0
VERTEX
  8
HA_6292
 62
     3
 10
550089
 20
3249536
  0
VERTEX
  8
HA_6292
 62
     3
 10
549959
 20
3249482
  0
VERTEX
  8
HA_6292
 62
     3
 10
549826
 20
3249430
  0
VERTEX
  8
HA_6292
 62
     3
 10
549762
 20
3249405
  0
VERTEX
  8
HA_6292
 62
     3
 10
549720
 20
3249376
  0
VERTEX
  8
HA_6292
 62
     3
 10
549677
 20
3249342
  0
VERTEX
  8
HA_6292
 62
     3
 10
549637
 20
3249315
  0
VERTEX
  8
HA_6292
 62
     3
 10
549616
 20
3249293
  0
VERTEX
  8
HA_6292
 62
     3
 10
549608
 20
3249275
  0
SEQEND
  0
POLYLINE
  8
HA_6292
  6
CONTINUOUS
 62
     3
 66
     1
  0
VERTEX
  8
HA_6292
 62
     3
 10
547516
 20
3248338
  0
VERTEX
  8
HA_6292
 62
     3
 10
547556
 20
3248321
  0
VERTEX
  8
HA_6292
 62
     3
 10
547613
 20
3248286
  0
SEQEND
  0
POLYLINE
  8
HA_6292
  6
CONTINUOUS
 62
     3
 66
     1
  0
VERTEX
  8
HA_6292
 62
     3
 10
543142
 20
3243852
  0
VERTEX
  8
HA_6292
 62
     3
 10
543206
 20
3243803
  0
VERTEX
  8
HA_6292
 62
     3
 10
543232
 20
3243792
  0
VERTEX
  8
HA_6292
 62
     3
 10
543293
 20
3243774
  0
SEQEND
  0
POLYLINE
  8
HA_6292
  6
CONTINUOUS
 62
     3
 66
     1
  0
VERTEX
  8
HA_6292
 62
     3
 10
546075
 20
3245668
  0
VERTEX
  8
HA_6292
 62
     3
 10
546094
 20
3245684
  0
VERTEX
  8
HA_6292
 62
     3
 10
546108
 20
3245712
  0
VERTEX
  8
HA_6292
 62
     3
 10
546122
 20
3245750
  0
VERTEX
  8
HA_6292
 62
     3
 10
546126
 20
3245790
  0
SEQEND
  0
POLYLINE
  8
HA_6292
  6
CONTINUOUS
 62
     3
 66
     1
  0
VERTEX
  8
HA_6292
 62
     3
 10
545685
 20
3245399
  0
VERTEX
  8
HA_6292
 62
     3
 10
545689
 20
3245457
  0
VERTEX
  8
HA_6292
 62
     3
 10
545700
 20
3245491
  0
VERTEX
  8
HA_6292
 62
     3
 10
545734
 20
3245538
  0
VERTEX
  8
HA_6292
 62
     3
 10
545768
 20
3245572
  0
VERTEX
  8
HA_6292
 62
     3
 10
545798
 20
3245595
  0
VERTEX
  8
HA_6292
 62
     3
 10
545817
 20
3245619
  0
VERTEX
  8
HA_6292
 62
     3
 10
545828
 20
3245635
  0
VERTEX
  8
HA_6292
 62
     3
 10
545832
 20
3245642
  0
VERTEX
  8
HA_6292
 62
     3
 10
545835
 20
3245644
  0
VERTEX
  8
HA_6292
 62
     3
 10
545842
 20
3245650
  0
VERTEX
  8
HA_6292
 62
     3
 10
545862
 20
3245654
  0
VERTEX
  8
HA_6292
 62
     3
 10
545879
 20
3245665
  0
VERTEX
  8
HA_6292
 62
     3
 10
545890
 20
3245677
  0
VERTEX
  8
HA_6292
 62
     3
 10
545905
 20
3245680
  0
VERTEX
  8
HA_6292
 62
     3
 10
545927
 20
3245674
  0
VERTEX
  8
HA_6292
 62
     3
 10
545947
 20
3245677
  0
VERTEX
  8
HA_6292
 62
     3
 10
545987
 20
3245678
  0
VERTEX
  8
HA_6292
 62
     3
 10
546020
 20
3245673
  0
VERTEX
  8
HA_6292
 62
     3
 10
546037
 20
3245678
  0
VERTEX
  8
HA_6292
 62
     3
 10
546052
 20
3245689
  0
VERTEX
  8
HA_6292
 62
     3
 10
546074
 20
3245713
  0
VERTEX
  8
HA_6292
 62
     3
 10
546100
 20
3245755
  0
VERTEX
  8
HA_6292
 62
     3
 10
546126
 20
3245790
  0
SEQEND
  0
POLYLINE
  8
HA_6292
  6
CONTINUOUS
 62
     3
 66
     1
  0
VERTEX
  8
HA_6292
 62
     3
 10
543073
 20
3243948
  0
VERTEX
  8
HA_6292
 62
     3
 10
543103
 20
3243905
  0
VERTEX
  8
HA_6292
 62
     3
 10
543142
 20
3243852
  0
SEQEND
  0
POLYLINE
  8
HA_6292
  6
CONTINUOUS
 62
     3
 66
     1
  0
VERTEX
  8
HA_6292
 62
     3
 10
549057
 20
3248387
  0
VERTEX
  8
HA_6292
 62
     3
 10
549103
 20
3248418
  0
VERTEX
  8
HA_6292
 62
     3
 10
549184
 20
3248472
  0
VERTEX
  8
HA_6292
 62
     3
 10
549234
 20
3248499
  0
VERTEX
  8
HA_6292
 62
     3
 10
549267
 20
3248523
  0
VERTEX
  8
HA_6292
 62
     3
 10
549284
 20
3248543
  0
VERTEX
  8
HA_6292
 62
     3
 10
549303
 20
3248561
  0
VERTEX
  8
HA_6292
 62
     3
 10
549315
 20
3248574
  0
VERTEX
  8
HA_6292
 62
     3
 10
549332
 20
3248594
  0
VERTEX
  8
HA_6292
 62
     3
 10
549349
 20
3248616
  0
VERTEX
  8
HA_6292
 62
     3
 10
549359
 20
3248629
  0
VERTEX
  8
HA_6292
 62
     3
 10
549369
 20
3248644
  0
VERTEX
  8
HA_6292
 62
     3
 10
549369
 20
3248657
  0
VERTEX
  8
HA_6292
 62
     3
 10
549371
 20
3248671
  0
VERTEX
  8
HA_6292
 62
     3
 10
549379
 20
3248693
  0
VERTEX
  8
HA_6292
 62
     3
 10
549394
 20
3248722
  0
VERTEX
  8
HA_6292
 62
     3
 10
549412
 20
3248756
  0
VERTEX
  8
HA_6292
 62
     3
 10
549438
 20
3248780
  0
VERTEX
  8
HA_6292
 62
     3
 10
549462
 20
3248802
  0
VERTEX
  8
HA_6292
 62
     3
 10
549473
 20
3248818
  0
VERTEX
  8
HA_6292
 62
     3
 10
549479
 20
3248855
  0
VERTEX
  8
HA_6292
 62
     3
 10
549490
 20
3248876
  0
VERTEX
  8
HA_6292
 62
     3
 10
549504
 20
3248906
  0
VERTEX
  8
HA_6292
 62
     3
 10
549507
 20
3248912
  0
VERTEX
  8
HA_6292
 62
     3
 10
549513
 20
3248929
  0
VERTEX
  8
HA_6292
 62
     3
 10
549517
 20
3248948
  0
VERTEX
  8
HA_6292
 62
     3
 10
549520
 20
3248990
  0
VERTEX
  8
HA_6292
 62
     3
 10
549525
 20
3249024
  0
VERTEX
  8
HA_6292
 62
     3
 10
549531
 20
3249059
  0
VERTEX
  8
HA_6292
 62
     3
 10
549541
 20
3249096
  0
VERTEX
  8
HA_6292
 62
     3
 10
549550
 20
3249119
  0
VERTEX
  8
HA_6292
 62
     3
 10
549576
 20
3249157
  0
VERTEX
  8
HA_6292
 62
     3
 10
549601
 20
3249184
  0
VERTEX
  8
HA_6292
 62
     3
 10
549643
 20
3249243
  0
VERTEX
  8
HA_6292
 62
     3
 10
549685
 20
3249286
  0
VERTEX
  8
HA_6292
 62
     3
 10
549710
 20
3249310
  0
VERTEX
  8
HA_6292
 62
     3
 10
549739
 20
3249335
  0
SEQEND
  0
POLYLINE
  8
HA_6292
  6
CONTINUOUS
 62
     3
 66
     1
  0
VERTEX
  8
HA_6292
 62
     3
 10
546513
 20
3248230
  0
VERTEX
  8
HA_6292
 62
     3
 10
546512
 20
3248227
  0
VERTEX
  8
HA_6292
 62
     3
 10
546504
 20
3248173
  0
VERTEX
  8
HA_6292
 62
     3
 10
546495
 20
3248127
  0
SEQEND
  0
POLYLINE
  8
HA_6292
  6
CONTINUOUS
 62
     3
 66
     1
  0
VERTEX
  8
HA_6292
 62
     3
 10
548512
 20
3248265
  0
VERTEX
  8
HA_6292
 62
     3
 10
548537
 20
3248265
  0
VERTEX
  8
HA_6292
 62
     3
 10
548562
 20
3248266
  0
VERTEX
  8
HA_6292
 62
     3
 10
548588
 20
3248263
  0
VERTEX
  8
HA_6292
 62
     3
 10
548617
 20
3248253
  0
VERTEX
  8
HA_6292
 62
     3
 10
548640
 20
3248251
  0
VERTEX
  8
HA_6292
 62
     3
 10
548667
 20
3248253
  0
VERTEX
  8
HA_6292
 62
     3
 10
548692
 20
3248255
  0
VERTEX
  8
HA_6292
 62
     3
 10
548715
 20
3248251
  0
VERTEX
  8
HA_6292
 62
     3
 10
548742
 20
3248255
  0
VERTEX
  8
HA_6292
 62
     3
 10
548767
 20
3248267
  0
VERTEX
  8
HA_6292
 62
     3
 10
548786
 20
3248274
  0
VERTEX
  8
HA_6292
 62
     3
 10
548813
 20
3248277
  0
VERTEX
  8
HA_6292
 62
     3
 10
548836
 20
3248283
  0
SEQEND
  0
POLYLINE
  8
HA_6292
  6
CONTINUOUS
 62
     3
 66
     1
  0
VERTEX
  8
HA_6292
 62
     3
 10
541159
 20
3243913
  0
VERTEX
  8
HA_6292
 62
     3
 10
541171
 20
3243931
  0
VERTEX
  8
HA_6292
 62
     3
 10
541205
 20
3243958
  0
VERTEX
  8
HA_6292
 62
     3
 10
541236
 20
3243969
  0
SEQEND
  0
POLYLINE
  8
HA_6292
  6
CONTINUOUS
 62
     3
 66
     1
  0
VERTEX
  8
HA_6292
 62
     3
 10
547316
 20
3248453
  0
VERTEX
  8
HA_6292
 62
     3
 10
547337
 20
3248436
  0
VERTEX
  8
HA_6292
 62
     3
 10
547365
 20
3248405
  0
VERTEX
  8
HA_6292
 62
     3
 10
547422
 20
3248378
  0
VERTEX
  8
HA_6292
 62
     3
 10
547491
 20
3248349
  0
VERTEX
  8
HA_6292
 62
     3
 10
547516
 20
3248338
  0
SEQEND
  0
POLYLINE
  8
HA_6292
  6
CONTINUOUS
 62
     3
 66
     1
  0
VERTEX
  8
HA_6292
 62
     3
 10
548230
 20
3248214
  0
VERTEX
  8
HA_6292
 62
     3
 10
548265
 20
3248226
  0
VERTEX
  8
HA_6292
 62
     3
 10
548317
 20
3248244
  0
VERTEX
  8
HA_6292
 62
     3
 10
548357
 20
3248263
  0
VERTEX
  8
HA_6292
 62
     3
 10
548385
 20
3248269
  0
VERTEX
  8
HA_6292
 62
     3
 10
548410
 20
3248275
  0
VERTEX
  8
HA_6292
 62
     3
 10
548445
 20
3248271
  0
VERTEX
  8
HA_6292
 62
     3
 10
548468
 20
3248267
  0
VERTEX
  8
HA_6292
 62
     3
 10
548496
 20
3248265
  0
VERTEX
  8
HA_6292
 62
     3
 10
548512
 20
3248265
  0
SEQEND
  0
POLYLINE
  8
HA_6292
  6
CONTINUOUS
 62
     3
 66
     1
  0
VERTEX
  8
HA_6292
 62
     3
 10
547777
 20
3248240
  0
VERTEX
  8
HA_6292
 62
     3
 10
547793
 20
3248237
  0
VERTEX
  8
HA_6292
 62
     3
 10
547879
 20
3248234
  0
VERTEX
  8
HA_6292
 62
     3
 10
547976
 20
3248220
  0
VERTEX
  8
HA_6292
 62
     3
 10
548043
 20
3248211
  0
VERTEX
  8
HA_6292
 62
     3
 10
548102
 20
3248196
  0
VERTEX
  8
HA_6292
 62
     3
 10
548147
 20
3248191
  0
VERTEX
  8
HA_6292
 62
     3
 10
548169
 20
3248191
  0
SEQEND
  0
POLYLINE
  8
HA_6292
  6
CONTINUOUS
 62
     3
 66
     1
  0
VERTEX
  8
HA_6292
 62
     3
 10
546485
 20
3248075
  0
VERTEX
  8
HA_6292
 62
     3
 10
546479
 20
3248022
  0
VERTEX
  8
HA_6292
 62
     3
 10
546484
 20
3247980
  0
VERTEX
  8
HA_6292
 62
     3
 10
546494
 20
3247948
  0
VERTEX
  8
HA_6292
 62
     3
 10
546502
 20
3247917
  0
VERTEX
  8
HA_6292
 62
     3
 10
546501
 20
3247896
  0
VERTEX
  8
HA_6292
 62
     3
 10
546492
 20
3247867
  0
VERTEX
  8
HA_6292
 62
     3
 10
546477
 20
3247818
  0
VERTEX
  8
HA_6292
 62
     3
 10
546471
 20
3247764
  0
VERTEX
  8
HA_6292
 62
     3
 10
546459
 20
3247711
  0
VERTEX
  8
HA_6292
 62
     3
 10
546445
 20
3247630
  0
VERTEX
  8
HA_6292
 62
     3
 10
546431
 20
3247584
  0
SEQEND
  0
POLYLINE
  8
HA_6292
  6
CONTINUOUS
 62
     3
 66
     1
  0
VERTEX
  8
HA_6292
 62
     3
 10
542568
 20
3244205
  0
VERTEX
  8
HA_6292
 62
     3
 10
542544
 20
3244191
  0
VERTEX
  8
HA_6292
 62
     3
 10
542506
 20
3244181
  0
VERTEX
  8
HA_6292
 62
     3
 10
542472
 20
3244172
  0
VERTEX
  8
HA_6292
 62
     3
 10
542442
 20
3244157
  0
VERTEX
  8
HA_6292
 62
     3
 10
542416
 20
3244153
  0
VERTEX
  8
HA_6292
 62
     3
 10
542385
 20
3244150
  0
VERTEX
  8
HA_6292
 62
     3
 10
542372
 20
3244157
  0
SEQEND
  0
POLYLINE
  8
HA_6292
  6
CONTINUOUS
 62
     3
 66
     1
  0
VERTEX
  8
HA_6292
 62
     3
 10
546551
 20
3248337
  0
VERTEX
  8
HA_6292
 62
     3
 10
546546
 20
3248326
  0
VERTEX
  8
HA_6292
 62
     3
 10
546540
 20
3248302
  0
VERTEX
  8
HA_6292
 62
     3
 10
546534
 20
3248290
  0
SEQEND
  0
POLYLINE
  8
HA_6292
  6
CONTINUOUS
 62
     3
 66
     1
  0
VERTEX
  8
HA_6292
 62
     3
 10
550262
 20
3249592
  0
VERTEX
  8
HA_6292
 62
     3
 10
550275
 20
3249597
  0
VERTEX
  8
HA_6292
 62
     3
 10
550294
 20
3249612
  0
VERTEX
  8
HA_6292
 62
     3
 10
550327
 20
3249631
  0
VERTEX
  8
HA_6292
 62
     3
 10
550368
 20
3249664
  0
VERTEX
  8
HA_6292
 62
     3
 10
550387
 20
3249663
  0
VERTEX
  8
HA_6292
 62
     3
 10
550402
 20
3249673
  0
VERTEX
  8
HA_6292
 62
     3
 10
550447
 20
3249697
  0
SEQEND
  0
POLYLINE
  8
HA_6292
  6
CONTINUOUS
 62
     3
 66
     1
  0
VERTEX
  8
HA_6292
 62
     3
 10
546817
 20
3248444
  0
VERTEX
  8
HA_6292
 62
     3
 10
546782
 20
3248440
  0
VERTEX
  8
HA_6292
 62
     3
 10
546744
 20
3248432
  0
VERTEX
  8
HA_6292
 62
     3
 10
546705
 20
3248423
  0
VERTEX
  8
HA_6292
 62
     3
 10
546676
 20
3248422
  0
VERTEX
  8
HA_6292
 62
     3
 10
546641
 20
3248413
  0
VERTEX
  8
HA_6292
 62
     3
 10
546608
 20
3248400
  0
VERTEX
  8
HA_6292
 62
     3
 10
546582
 20
3248391
  0
VERTEX
  8
HA_6292
 62
     3
 10
546568
 20
3248376
  0
VERTEX
  8
HA_6292
 62
     3
 10
546557
 20
3248350
  0
VERTEX
  8
HA_6292
 62
     3
 10
546551
 20
3248337
  0
SEQEND
  0
POLYLINE
  8
HA_6292
  6
CONTINUOUS
 62
     3
 66
     1
  0
VERTEX
  8
HA_6292
 62
     3
 10
542977
 20
3244094
  0
VERTEX
  8
HA_6292
 62
     3
 10
543044
 20
3244012
  0
VERTEX
  8
HA_6292
 62
     3
 10
543073
 20
3243948
  0
SEQEND
  0
POLYLINE
  8
HA_6292
  6
CONTINUOUS
 62
     3
 66
     1
  0
VERTEX
  8
HA_6292
 62
     3
 10
546534
 20
3248290
  0
VERTEX
  8
HA_6292
 62
     3
 10
546525
 20
3248269
  0
VERTEX
  8
HA_6292
 62
     3
 10
546513
 20
3248230
  0
SEQEND
  0
POLYLINE
  8
HA_6292
  6
CONTINUOUS
 62
     3
 66
     1
  0
VERTEX
  8
HA_6292
 62
     3
 10
547316
 20
3248453
  0
VERTEX
  8
HA_6292
 62
     3
 10
547288
 20
3248474
  0
VERTEX
  8
HA_6292
 62
     3
 10
547270
 20
3248483
  0
VERTEX
  8
HA_6292
 62
     3
 10
547241
 20
3248487
  0
VERTEX
  8
HA_6292
 62
     3
 10
547192
 20
3248478
  0
VERTEX
  8
HA_6292
 62
     3
 10
547148
 20
3248480
  0
VERTEX
  8
HA_6292
 62
     3
 10
547094
 20
3248474
  0
VERTEX
  8
HA_6292
 62
     3
 10
547071
 20
3248465
  0
VERTEX
  8
HA_6292
 62
     3
 10
547044
 20
3248459
  0
VERTEX
  8
HA_6292
 62
     3
 10
547009
 20
3248455
  0
VERTEX
  8
HA_6292
 62
     3
 10
546964
 20
3248446
  0
VERTEX
  8
HA_6292
 62
     3
 10
546932
 20
3248439
  0
VERTEX
  8
HA_6292
 62
     3
 10
546899
 20
3248427
  0
VERTEX
  8
HA_6292
 62
     3
 10
546871
 20
3248425
  0
VERTEX
  8
HA_6292
 62
     3
 10
546843
 20
3248432
  0
VERTEX
  8
HA_6292
 62
     3
 10
546817
 20
3248444
  0
SEQEND
  0
POLYLINE
  8
HA_6292
  6
CONTINUOUS
 62
     3
 66
     1
  0
VERTEX
  8
HA_6292
 62
     3
 10
547777
 20
3248240
  0
VERTEX
  8
HA_6292
 62
     3
 10
547822
 20
3248246
  0
VERTEX
  8
HA_6292
 62
     3
 10
547854
 20
3248248
  0
VERTEX
  8
HA_6292
 62
     3
 10
547892
 20
3248248
  0
VERTEX
  8
HA_6292
 62
     3
 10
547930
 20
3248250
  0
VERTEX
  8
HA_6292
 62
     3
 10
547965
 20
3248246
  0
VERTEX
  8
HA_6292
 62
     3
 10
548014
 20
3248237
  0
VERTEX
  8
HA_6292
 62
     3
 10
548093
 20
3248219
  0
VERTEX
  8
HA_6292
 62
     3
 10
548135
 20
3248213
  0
VERTEX
  8
HA_6292
 62
     3
 10
548166
 20
3248213
  0
VERTEX
  8
HA_6292
 62
     3
 10
548199
 20
3248231
  0
VERTEX
  8
HA_6292
 62
     3
 10
548230
 20
3248238
  0
VERTEX
  8
HA_6292
 62
     3
 10
548266
 20
3248256
  0
VERTEX
  8
HA_6292
 62
     3
 10
548313
 20
3248279
  0
VERTEX
  8
HA_6292
 62
     3
 10
548344
 20
3248283
  0
VERTEX
  8
HA_6292
 62
     3
 10
548371
 20
3248286
  0
VERTEX
  8
HA_6292
 62
     3
 10
548400
 20
3248306
  0
VERTEX
  8
HA_6292
 62
     3
 10
548436
 20
3248305
  0
VERTEX
  8
HA_6292
 62
     3
 10
548464
 20
3248289
  0
VERTEX
  8
HA_6292
 62
     3
 10
548486
 20
3248285
  0
VERTEX
  8
HA_6292
 62
     3
 10
548506
 20
3248290
  0
VERTEX
  8
HA_6292
 62
     3
 10
548540
 20
3248297
  0
VERTEX
  8
HA_6292
 62
     3
 10
548553
 20
3248294
  0
VERTEX
  8
HA_6292
 62
     3
 10
548566
 20
3248293
  0
SEQEND
  0
POLYLINE
  8
HA_6292
  6
CONTINUOUS
 62
     3
 66
     1
  0
VERTEX
  8
HA_6292
 62
     3
 10
542466
 20
3244205
  0
VERTEX
  8
HA_6292
 62
     3
 10
542556
 20
3244232
  0
VERTEX
  8
HA_6292
 62
     3
 10
542625
 20
3244244
  0
VERTEX
  8
HA_6292
 62
     3
 10
542700
 20
3244250
  0
VERTEX
  8
HA_6292
 62
     3
 10
542791
 20
3244241
  0
VERTEX
  8
HA_6292
 62
     3
 10
542842
 20
3244227
  0
SEQEND
  0
POLYLINE
  8
HA_6292
  6
CONTINUOUS
 62
     3
 66
     1
  0
VERTEX
  8
HA_6292
 62
     3
 10
542842
 20
3244227
  0
VERTEX
  8
HA_6292
 62
     3
 10
542857
 20
3244203
  0
VERTEX
  8
HA_6292
 62
     3
 10
542884
 20
3244182
  0
VERTEX
  8
HA_6292
 62
     3
 10
542943
 20
3244135
  0
VERTEX
  8
HA_6292
 62
     3
 10
542977
 20
3244094
  0
SEQEND
  0
POLYLINE
  8
HA_6292
  6
CONTINUOUS
 62
     3
 66
     1
  0
VERTEX
  8
HA_6292
 62
     3
 10
544424
 20
3243594
  0
VERTEX
  8
HA_6292
 62
     3
 10
544417
 20
3243588
  0
VERTEX
  8
HA_6292
 62
     3
 10
544455
 20
3243590
  0
VERTEX
  8
HA_6292
 62
     3
 10
544518
 20
3243620
  0
SEQEND
  0
POLYLINE
  8
HA_6292
  6
CONTINUOUS
 62
     3
 66
     1
  0
VERTEX
  8
HA_6292
 62
     3
 10
544483
 20
3243635
  0
VERTEX
  8
HA_6292
 62
     3
 10
544438
 20
3243606
  0
VERTEX
  8
HA_6292
 62
     3
 10
544424
 20
3243594
  0
SEQEND
  0
POLYLINE
  8
HA_6292
  6
CONTINUOUS
 62
     3
 66
     1
  0
VERTEX
  8
HA_6292
 62
     3
 10
546474
 20
3247550
  0
VERTEX
  8
HA_6292
 62
     3
 10
546472
 20
3247597
  0
VERTEX
  8
HA_6292
 62
     3
 10
546478
 20
3247648
  0
VERTEX
  8
HA_6292
 62
     3
 10
546478
 20
3247697
  0
VERTEX
  8
HA_6292
 62
     3
 10
546486
 20
3247745
  0
VERTEX
  8
HA_6292
 62
     3
 10
546492
 20
3247770
  0
VERTEX
  8
HA_6292
 62
     3
 10
546518
 20
3247827
  0
VERTEX
  8
HA_6292
 62
     3
 10
546528
 20
3247853
  0
VERTEX
  8
HA_6292
 62
     3
 10
546530
 20
3247878
  0
VERTEX
  8
HA_6292
 62
     3
 10
546538
 20
3247916
  0
VERTEX
  8
HA_6292
 62
     3
 10
546534
 20
3247946
  0
VERTEX
  8
HA_6292
 62
     3
 10
546519
 20
3247966
  0
VERTEX
  8
HA_6292
 62
     3
 10
546507
 20
3247987
  0
VERTEX
  8
HA_6292
 62
     3
 10
546499
 20
3248021
  0
VERTEX
  8
HA_6292
 62
     3
 10
546504
 20
3248056
  0
VERTEX
  8
HA_6292
 62
     3
 10
546518
 20
3248087
  0
VERTEX
  8
HA_6292
 62
     3
 10
546517
 20
3248120
  0
SEQEND
  0
POLYLINE
  8
HA_6292
  6
CONTINUOUS
 62
     3
 66
     1
  0
VERTEX
  8
HA_6292
 62
     3
 10
541088
 20
3243118
  0
VERTEX
  8
HA_6292
 62
     3
 10
541090
 20
3243085
  0
VERTEX
  8
HA_6292
 62
     3
 10
541079
 20
3243061
  0
VERTEX
  8
HA_6292
 62
     3
 10
541065
 20
3243032
  0
SEQEND
  0
POLYLINE
  8
HA_6292
  6
CONTINUOUS
 62
     3
 66
     1
  0
VERTEX
  8
HA_6292
 62
     3
 10
549784
 20
3249365
  0
VERTEX
  8
HA_6292
 62
     3
 10
549806
 20
3249378
  0
VERTEX
  8
HA_6292
 62
     3
 10
549851
 20
3249396
  0
VERTEX
  8
HA_6292
 62
     3
 10
549886
 20
3249407
  0
VERTEX
  8
HA_6292
 62
     3
 10
549921
 20
3249424
  0
VERTEX
  8
HA_6292
 62
     3
 10
549952
 20
3249441
  0
VERTEX
  8
HA_6292
 62
     3
 10
549984
 20
3249462
  0
VERTEX
  8
HA_6292
 62
     3
 10
550016
 20
3249480
  0
VERTEX
  8
HA_6292
 62
     3
 10
550039
 20
3249492
  0
VERTEX
  8
HA_6292
 62
     3
 10
550069
 20
3249503
  0
VERTEX
  8
HA_6292
 62
     3
 10
550094
 20
3249516
  0
VERTEX
  8
HA_6292
 62
     3
 10
550123
 20
3249535
  0
VERTEX
  8
HA_6292
 62
     3
 10
550152
 20
3249550
  0
VERTEX
  8
HA_6292
 62
     3
 10
550194
 20
3249569
  0
VERTEX
  8
HA_6292
 62
     3
 10
550244
 20
3249593
  0
VERTEX
  8
HA_6292
 62
     3
 10
550262
 20
3249592
  0
SEQEND
  0
POLYLINE
  8
HA_6292
  6
CONTINUOUS
 62
     3
 66
     1
  0
VERTEX
  8
HA_6292
 62
     3
 10
544483
 20
3243635
  0
VERTEX
  8
HA_6292
 62
     3
 10
544493
 20
3243642
  0
VERTEX
  8
HA_6292
 62
     3
 10
544599
 20
3243709
  0
VERTEX
  8
HA_6292
 62
     3
 10
544671
 20
3243769
  0
VERTEX
  8
HA_6292
 62
     3
 10
544719
 20
3243803
  0
VERTEX
  8
HA_6292
 62
     3
 10
544810
 20
3243871
  0
VERTEX
  8
HA_6292
 62
     3
 10
544849
 20
3243901
  0
VERTEX
  8
HA_6292
 62
     3
 10
544903
 20
3243946
  0
VERTEX
  8
HA_6292
 62
     3
 10
544971
 20
3244009
  0
VERTEX
  8
HA_6292
 62
     3
 10
545063
 20
3244067
  0
VERTEX
  8
HA_6292
 62
     3
 10
545077
 20
3244079
  0
VERTEX
  8
HA_6292
 62
     3
 10
545110
 20
3244108
  0
VERTEX
  8
HA_6292
 62
     3
 10
545152
 20
3244157
  0
VERTEX
  8
HA_6292
 62
     3
 10
545188
 20
3244240
  0
VERTEX
  8
HA_6292
 62
     3
 10
545213
 20
3244325
  0
VERTEX
  8
HA_6292
 62
     3
 10
545244
 20
3244455
  0
VERTEX
  8
HA_6292
 62
     3
 10
545267
 20
3244512
  0
VERTEX
  8
HA_6292
 62
     3
 10
545289
 20
3244573
  0
VERTEX
  8
HA_6292
 62
     3
 10
545302
 20
3244633
  0
VERTEX
  8
HA_6292
 62
     3
 10
545305
 20
3244695
  0
VERTEX
  8
HA_6292
 62
     3
 10
545308
 20
3244768
  0
VERTEX
  8
HA_6292
 62
     3
 10
545314
 20
3244795
  0
VERTEX
  8
HA_6292
 62
     3
 10
545339
 20
3244823
  0
SEQEND
  0
POLYLINE
  8
HA_6292
  6
CONTINUOUS
 62
     3
 66
     1
  0
VERTEX
  8
HA_6292
 62
     3
 10
544726
 20
3243769
  0
VERTEX
  8
HA_6292
 62
     3
 10
544768
 20
3243797
  0
VERTEX
  8
HA_6292
 62
     3
 10
544876
 20
3243884
  0
VERTEX
  8
HA_6292
 62
     3
 10
544955
 20
3243953
  0
VERTEX
  8
HA_6292
 62
     3
 10
545030
 20
3244017
  0
VERTEX
  8
HA_6292
 62
     3
 10
545093
 20
3244062
  0
VERTEX
  8
HA_6292
 62
     3
 10
545117
 20
3244084
  0
VERTEX
  8
HA_6292
 62
     3
 10
545143
 20
3244107
  0
VERTEX
  8
HA_6292
 62
     3
 10
545182
 20
3244169
  0
VERTEX
  8
HA_6292
 62
     3
 10
545238
 20
3244262
  0
SEQEND
  0
ENDSEC
  0
EOF
