  0
SECTION
  2
HEADER
  9
$EXTMIN
 10
532310
 20
3235730
  9
$EXTMAX
 10
564776
 20
3263568
  9
$CECOLOR
 62
     0
  9
$CELTYPE
  6
CONTINUOUS
  9
$TEXTSTYLE
  7
STANDARD
  0
ENDSEC
  0
SECTION
  2
TABLES
  0
TABLE
  2
LTYPE
 70
     1
  0
LTYPE
  2
CONTINUOUS
 70
    64
  3
Solid line
 72
    65
 73
     0
 40
0.0
  0
ENDTAB
  0
TABLE
  2
LAYER
 70
    1
  0
LAYER
  2
LL_3480
 70
   64
 62
56
  6
CONTINUOUS
  0
ENDTAB
  0
TABLE
  2
STYLE
 70
     0
  0
ENDTAB
  0
ENDSEC
  0
SECTION
  2
BLOCKS
  0
ENDSEC
  0
SECTION
  2
ENTITIES
  0
POLYLINE
  8
LL_3480
  6
CONTINUOUS
 62
     1
 66
     1
  0
VERTEX
  8
LL_3480
 62
     1
 10
550186
 20
3248712
  0
VERTEX
  8
LL_3480
 62
     1
 10
550120
 20
3248916
  0
VERTEX
  8
LL_3480
 62
     1
 10
550195
 20
3248901
  0
VERTEX
  8
LL_3480
 62
     1
 10
550261
 20
3248976
  0
VERTEX
  8
LL_3480
 62
     1
 10
550303
 20
3248937
  0
VERTEX
  8
LL_3480
 62
     1
 10
550498
 20
3249132
  0
VERTEX
  8
LL_3480
 62
     1
 10
550533
 20
3249083
  0
SEQEND
  0
POLYLINE
  8
LL_3480
  6
CONTINUOUS
 62
     1
 66
     1
  0
VERTEX
  8
LL_3480
 62
     1
 10
549785
 20
3248457
  0
VERTEX
  8
LL_3480
 62
     1
 10
549718
 20
3248538
  0
VERTEX
  8
LL_3480
 62
     1
 10
549592
 20
3248454
  0
VERTEX
  8
LL_3480
 62
     1
 10
549487
 20
3248362
  0
VERTEX
  8
LL_3480
 62
     1
 10
549445
 20
3248421
  0
VERTEX
  8
LL_3480
 62
     1
 10
549346
 20
3248335
  0
VERTEX
  8
LL_3480
 62
     1
 10
549307
 20
3248362
  0
VERTEX
  8
LL_3480
 62
     1
 10
549466
 20
3248502
  0
VERTEX
  8
LL_3480
 62
     1
 10
549700
 20
3248779
  0
VERTEX
  8
LL_3480
 62
     1
 10
549730
 20
3248751
  0
VERTEX
  8
LL_3480
 62
     1
 10
549799
 20
3248701
  0
VERTEX
  8
LL_3480
 62
     1
 10
549820
 20
3248676
  0
VERTEX
  8
LL_3480
 62
     1
 10
549919
 20
3248796
  0
VERTEX
  8
LL_3480
 62
     1
 10
550027
 20
3248681
  0
SEQEND
  0
POLYLINE
  8
LL_3480
  6
CONTINUOUS
 62
     1
 66
     1
  0
VERTEX
  8
LL_3480
 62
     1
 10
551634
 20
3249481
  0
VERTEX
  8
LL_3480
 62
     1
 10
551683
 20
3249500
  0
VERTEX
  8
LL_3480
 62
     1
 10
551711
 20
3249514
  0
SEQEND
  0
POLYLINE
  8
LL_3480
  6
CONTINUOUS
 62
     1
 66
     1
  0
VERTEX
  8
LL_3480
 62
     1
 10
551711
 20
3249514
  0
VERTEX
  8
LL_3480
 62
     1
 10
551774
 20
3249545
  0
SEQEND
  0
POLYLINE
  8
LL_3480
  6
CONTINUOUS
 62
     1
 66
     1
  0
VERTEX
  8
LL_3480
 62
     1
 10
551824
 20
3249209
  0
VERTEX
  8
LL_3480
 62
     1
 10
551950
 20
3249315
  0
SEQEND
  0
POLYLINE
  8
LL_3480
  6
CONTINUOUS
 62
     1
 66
     1
  0
VERTEX
  8
LL_3480
 62
     1
 10
551686
 20
3249240
  0
VERTEX
  8
LL_3480
 62
     1
 10
551700
 20
3249257
  0
VERTEX
  8
LL_3480
 62
     1
 10
551712
 20
3249274
  0
VERTEX
  8
LL_3480
 62
     1
 10
551722
 20
3249284
  0
VERTEX
  8
LL_3480
 62
     1
 10
551744
 20
3249300
  0
SEQEND
  0
POLYLINE
  8
LL_3480
  6
CONTINUOUS
 62
     1
 66
     1
  0
VERTEX
  8
LL_3480
 62
     1
 10
551747
 20
3249373
  0
VERTEX
  8
LL_3480
 62
     1
 10
551730
 20
3249396
  0
VERTEX
  8
LL_3480
 62
     1
 10
551720
 20
3249427
  0
VERTEX
  8
LL_3480
 62
     1
 10
551728
 20
3249446
  0
VERTEX
  8
LL_3480
 62
     1
 10
551729
 20
3249470
  0
VERTEX
  8
LL_3480
 62
     1
 10
551711
 20
3249514
  0
SEQEND
  0
POLYLINE
  8
LL_3480
  6
CONTINUOUS
 62
     1
 66
     1
  0
VERTEX
  8
LL_3480
 62
     1
 10
551634
 20
3249481
  0
VERTEX
  8
LL_3480
 62
     1
 10
551664
 20
3249411
  0
VERTEX
  8
LL_3480
 62
     1
 10
551700
 20
3249358
  0
VERTEX
  8
LL_3480
 62
     1
 10
551730
 20
3249323
  0
VERTEX
  8
LL_3480
 62
     1
 10
551769
 20
3249264
  0
VERTEX
  8
LL_3480
 62
     1
 10
551809
 20
3249219
  0
VERTEX
  8
LL_3480
 62
     1
 10
551824
 20
3249209
  0
SEQEND
  0
POLYLINE
  8
LL_3480
  6
CONTINUOUS
 62
     1
 66
     1
  0
VERTEX
  8
LL_3480
 62
     1
 10
551824
 20
3249209
  0
VERTEX
  8
LL_3480
 62
     1
 10
551844
 20
3249173
  0
VERTEX
  8
LL_3480
 62
     1
 10
551809
 20
3249156
  0
VERTEX
  8
LL_3480
 62
     1
 10
551734
 20
3249147
  0
VERTEX
  8
LL_3480
 62
     1
 10
551699
 20
3249211
  0
VERTEX
  8
LL_3480
 62
     1
 10
551686
 20
3249240
  0
SEQEND
  0
POLYLINE
  8
LL_3480
  6
CONTINUOUS
 62
     1
 66
     1
  0
VERTEX
  8
LL_3480
 62
     1
 10
551686
 20
3249240
  0
VERTEX
  8
LL_3480
 62
     1
 10
551671
 20
3249271
  0
VERTEX
  8
LL_3480
 62
     1
 10
551652
 20
3249326
  0
VERTEX
  8
LL_3480
 62
     1
 10
551639
 20
3249371
  0
VERTEX
  8
LL_3480
 62
     1
 10
551605
 20
3249470
  0
SEQEND
  0
POLYLINE
  8
LL_3480
  6
CONTINUOUS
 62
     1
 66
     1
  0
VERTEX
  8
LL_3480
 62
     1
 10
551605
 20
3249470
  0
VERTEX
  8
LL_3480
 62
     1
 10
551594
 20
3249498
  0
VERTEX
  8
LL_3480
 62
     1
 10
551568
 20
3249546
  0
VERTEX
  8
LL_3480
 62
     1
 10
551571
 20
3249560
  0
VERTEX
  8
LL_3480
 62
     1
 10
551650
 20
3249635
  0
VERTEX
  8
LL_3480
 62
     1
 10
551678
 20
3249611
  0
SEQEND
  0
POLYLINE
  8
LL_3480
  6
CONTINUOUS
 62
     1
 66
     1
  0
VERTEX
  8
LL_3480
 62
     1
 10
551678
 20
3249611
  0
VERTEX
  8
LL_3480
 62
     1
 10
551712
 20
3249614
  0
VERTEX
  8
LL_3480
 62
     1
 10
551735
 20
3249600
  0
VERTEX
  8
LL_3480
 62
     1
 10
551840
 20
3249454
  0
SEQEND
  0
POLYLINE
  8
LL_3480
  6
CONTINUOUS
 62
     1
 66
     1
  0
VERTEX
  8
LL_3480
 62
     1
 10
551914
 20
3251711
  0
VERTEX
  8
LL_3480
 62
     1
 10
551983
 20
3251643
  0
VERTEX
  8
LL_3480
 62
     1
 10
552085
 20
3251523
  0
VERTEX
  8
LL_3480
 62
     1
 10
552148
 20
3251443
  0
SEQEND
  0
POLYLINE
  8
LL_3480
  6
CONTINUOUS
 62
     1
 66
     1
  0
VERTEX
  8
LL_3480
 62
     1
 10
552091
 20
3250674
  0
VERTEX
  8
LL_3480
 62
     1
 10
552106
 20
3250719
  0
VERTEX
  8
LL_3480
 62
     1
 10
552120
 20
3250829
  0
SEQEND
  0
POLYLINE
  8
LL_3480
  6
CONTINUOUS
 62
     1
 66
     1
  0
VERTEX
  8
LL_3480
 62
     1
 10
551158
 20
3251523
  0
VERTEX
  8
LL_3480
 62
     1
 10
551194
 20
3251451
  0
VERTEX
  8
LL_3480
 62
     1
 10
551227
 20
3251399
  0
VERTEX
  8
LL_3480
 62
     1
 10
551257
 20
3251382
  0
VERTEX
  8
LL_3480
 62
     1
 10
551299
 20
3251337
  0
VERTEX
  8
LL_3480
 62
     1
 10
551356
 20
3251274
  0
SEQEND
  0
POLYLINE
  8
LL_3480
  6
CONTINUOUS
 62
     1
 66
     1
  0
VERTEX
  8
LL_3480
 62
     1
 10
552981
 20
3250075
  0
VERTEX
  8
LL_3480
 62
     1
 10
553027
 20
3250111
  0
SEQEND
  0
POLYLINE
  8
LL_3480
  6
CONTINUOUS
 62
     1
 66
     1
  0
VERTEX
  8
LL_3480
 62
     1
 10
553027
 20
3250111
  0
VERTEX
  8
LL_3480
 62
     1
 10
552980
 20
3250164
  0
SEQEND
  0
POLYLINE
  8
LL_3480
  6
CONTINUOUS
 62
     1
 66
     1
  0
VERTEX
  8
LL_3480
 62
     1
 10
552980
 20
3250164
  0
VERTEX
  8
LL_3480
 62
     1
 10
553075
 20
3250245
  0
SEQEND
  0
POLYLINE
  8
LL_3480
  6
CONTINUOUS
 62
     1
 66
     1
  0
VERTEX
  8
LL_3480
 62
     1
 10
553075
 20
3250245
  0
VERTEX
  8
LL_3480
 62
     1
 10
553123
 20
3250187
  0
SEQEND
  0
POLYLINE
  8
LL_3480
  6
CONTINUOUS
 62
     1
 66
     1
  0
VERTEX
  8
LL_3480
 62
     1
 10
552854
 20
3250302
  0
VERTEX
  8
LL_3480
 62
     1
 10
552923
 20
3250229
  0
VERTEX
  8
LL_3480
 62
     1
 10
552980
 20
3250164
  0
SEQEND
  0
POLYLINE
  8
LL_3480
  6
CONTINUOUS
 62
     1
 66
     1
  0
VERTEX
  8
LL_3480
 62
     1
 10
552980
 20
3250164
  0
VERTEX
  8
LL_3480
 62
     1
 10
552937
 20
3250126
  0
VERTEX
  8
LL_3480
 62
     1
 10
552981
 20
3250075
  0
SEQEND
  0
POLYLINE
  8
LL_3480
  6
CONTINUOUS
 62
     1
 66
     1
  0
VERTEX
  8
LL_3480
 62
     1
 10
553027
 20
3250111
  0
VERTEX
  8
LL_3480
 62
     1
 10
553123
 20
3250187
  0
SEQEND
  0
POLYLINE
  8
LL_3480
  6
CONTINUOUS
 62
     1
 66
     1
  0
VERTEX
  8
LL_3480
 62
     1
 10
553058
 20
3250231
  0
VERTEX
  8
LL_3480
 62
     1
 10
552973
 20
3250284
  0
VERTEX
  8
LL_3480
 62
     1
 10
552898
 20
3250349
  0
SEQEND
  0
POLYLINE
  8
LL_3480
  6
CONTINUOUS
 62
     1
 66
     1
  0
VERTEX
  8
LL_3480
 62
     1
 10
553075
 20
3250245
  0
VERTEX
  8
LL_3480
 62
     1
 10
553165
 20
3250362
  0
VERTEX
  8
LL_3480
 62
     1
 10
553213
 20
3250409
  0
SEQEND
  0
POLYLINE
  8
LL_3480
  6
CONTINUOUS
 62
     1
 66
     1
  0
VERTEX
  8
LL_3480
 62
     1
 10
551914
 20
3251711
  0
VERTEX
  8
LL_3480
 62
     1
 10
551746
 20
3251501
  0
VERTEX
  8
LL_3480
 62
     1
 10
551716
 20
3251462
  0
VERTEX
  8
LL_3480
 62
     1
 10
551683
 20
3251444
  0
VERTEX
  8
LL_3480
 62
     1
 10
551659
 20
3251435
  0
VERTEX
  8
LL_3480
 62
     1
 10
551629
 20
3251393
  0
VERTEX
  8
LL_3480
 62
     1
 10
551620
 20
3251357
  0
VERTEX
  8
LL_3480
 62
     1
 10
551602
 20
3251321
  0
VERTEX
  8
LL_3480
 62
     1
 10
551569
 20
3251276
  0
VERTEX
  8
LL_3480
 62
     1
 10
551599
 20
3251243
  0
VERTEX
  8
LL_3480
 62
     1
 10
551635
 20
3251180
  0
VERTEX
  8
LL_3480
 62
     1
 10
551683
 20
3251082
  0
VERTEX
  8
LL_3480
 62
     1
 10
551710
 20
3251057
  0
VERTEX
  8
LL_3480
 62
     1
 10
551659
 20
3251016
  0
VERTEX
  8
LL_3480
 62
     1
 10
551629
 20
3250965
  0
SEQEND
  0
POLYLINE
  8
LL_3480
  6
CONTINUOUS
 62
     1
 66
     1
  0
VERTEX
  8
LL_3480
 62
     1
 10
551629
 20
3250965
  0
VERTEX
  8
LL_3480
 62
     1
 10
551598
 20
3250901
  0
SEQEND
  0
POLYLINE
  8
LL_3480
  6
CONTINUOUS
 62
     1
 66
     1
  0
VERTEX
  8
LL_3480
 62
     1
 10
552473
 20
3252993
  0
VERTEX
  8
LL_3480
 62
     1
 10
552487
 20
3252941
  0
VERTEX
  8
LL_3480
 62
     1
 10
552526
 20
3252860
  0
VERTEX
  8
LL_3480
 62
     1
 10
552544
 20
3252842
  0
VERTEX
  8
LL_3480
 62
     1
 10
552448
 20
3252791
  0
VERTEX
  8
LL_3480
 62
     1
 10
552466
 20
3252728
  0
VERTEX
  8
LL_3480
 62
     1
 10
552373
 20
3252680
  0
VERTEX
  8
LL_3480
 62
     1
 10
552298
 20
3252653
  0
VERTEX
  8
LL_3480
 62
     1
 10
552235
 20
3252623
  0
VERTEX
  8
LL_3480
 62
     1
 10
552169
 20
3252521
  0
VERTEX
  8
LL_3480
 62
     1
 10
552139
 20
3252452
  0
VERTEX
  8
LL_3480
 62
     1
 10
552106
 20
3252425
  0
VERTEX
  8
LL_3480
 62
     1
 10
552067
 20
3252428
  0
VERTEX
  8
LL_3480
 62
     1
 10
552011
 20
3252436
  0
SEQEND
  0
POLYLINE
  8
LL_3480
  6
CONTINUOUS
 62
     1
 66
     1
  0
VERTEX
  8
LL_3480
 62
     1
 10
552802
 20
3250770
  0
VERTEX
  8
LL_3480
 62
     1
 10
552968
 20
3250677
  0
SEQEND
  0
POLYLINE
  8
LL_3480
  6
CONTINUOUS
 62
     1
 66
     1
  0
VERTEX
  8
LL_3480
 62
     1
 10
552802
 20
3250770
  0
VERTEX
  8
LL_3480
 62
     1
 10
552676
 20
3250853
  0
VERTEX
  8
LL_3480
 62
     1
 10
552571
 20
3250871
  0
VERTEX
  8
LL_3480
 62
     1
 10
552406
 20
3250907
  0
VERTEX
  8
LL_3480
 62
     1
 10
552331
 20
3250940
  0
VERTEX
  8
LL_3480
 62
     1
 10
552289
 20
3250976
  0
VERTEX
  8
LL_3480
 62
     1
 10
552270
 20
3251034
  0
SEQEND
  0
POLYLINE
  8
LL_3480
  6
CONTINUOUS
 62
     1
 66
     1
  0
VERTEX
  8
LL_3480
 62
     1
 10
552477
 20
3251261
  0
VERTEX
  8
LL_3480
 62
     1
 10
552523
 20
3251270
  0
VERTEX
  8
LL_3480
 62
     1
 10
552583
 20
3251213
  0
VERTEX
  8
LL_3480
 62
     1
 10
552640
 20
3251231
  0
VERTEX
  8
LL_3480
 62
     1
 10
552760
 20
3251285
  0
VERTEX
  8
LL_3480
 62
     1
 10
552847
 20
3251213
  0
VERTEX
  8
LL_3480
 62
     1
 10
552973
 20
3251093
  0
VERTEX
  8
LL_3480
 62
     1
 10
553039
 20
3250970
  0
VERTEX
  8
LL_3480
 62
     1
 10
553068
 20
3250905
  0
SEQEND
  0
POLYLINE
  8
LL_3480
  6
CONTINUOUS
 62
     1
 66
     1
  0
VERTEX
  8
LL_3480
 62
     1
 10
553298
 20
3253181
  0
VERTEX
  8
LL_3480
 62
     1
 10
553378
 20
3253109
  0
VERTEX
  8
LL_3480
 62
     1
 10
553426
 20
3253058
  0
VERTEX
  8
LL_3480
 62
     1
 10
553414
 20
3253022
  0
VERTEX
  8
LL_3480
 62
     1
 10
553384
 20
3252986
  0
VERTEX
  8
LL_3480
 62
     1
 10
553360
 20
3252959
  0
VERTEX
  8
LL_3480
 62
     1
 10
553339
 20
3252923
  0
VERTEX
  8
LL_3480
 62
     1
 10
553321
 20
3252878
  0
VERTEX
  8
LL_3480
 62
     1
 10
553297
 20
3252839
  0
VERTEX
  8
LL_3480
 62
     1
 10
553252
 20
3252809
  0
VERTEX
  8
LL_3480
 62
     1
 10
553189
 20
3252788
  0
VERTEX
  8
LL_3480
 62
     1
 10
553174
 20
3252758
  0
VERTEX
  8
LL_3480
 62
     1
 10
553162
 20
3252704
  0
VERTEX
  8
LL_3480
 62
     1
 10
553159
 20
3252662
  0
VERTEX
  8
LL_3480
 62
     1
 10
553141
 20
3252632
  0
VERTEX
  8
LL_3480
 62
     1
 10
553132
 20
3252614
  0
VERTEX
  8
LL_3480
 62
     1
 10
553134
 20
3252561
  0
SEQEND
  0
POLYLINE
  8
LL_3480
  6
CONTINUOUS
 62
     1
 66
     1
  0
VERTEX
  8
LL_3480
 62
     1
 10
552178
 20
3252156
  0
VERTEX
  8
LL_3480
 62
     1
 10
552184
 20
3252227
  0
VERTEX
  8
LL_3480
 62
     1
 10
552289
 20
3252398
  0
VERTEX
  8
LL_3480
 62
     1
 10
552313
 20
3252422
  0
VERTEX
  8
LL_3480
 62
     1
 10
552358
 20
3252461
  0
VERTEX
  8
LL_3480
 62
     1
 10
552400
 20
3252515
  0
SEQEND
  0
POLYLINE
  8
LL_3480
  6
CONTINUOUS
 62
     1
 66
     1
  0
VERTEX
  8
LL_3480
 62
     1
 10
552400
 20
3252515
  0
VERTEX
  8
LL_3480
 62
     1
 10
552424
 20
3252563
  0
VERTEX
  8
LL_3480
 62
     1
 10
552397
 20
3252617
  0
VERTEX
  8
LL_3480
 62
     1
 10
552463
 20
3252647
  0
VERTEX
  8
LL_3480
 62
     1
 10
552529
 20
3252704
  0
VERTEX
  8
LL_3480
 62
     1
 10
552589
 20
3252734
  0
VERTEX
  8
LL_3480
 62
     1
 10
552700
 20
3252800
  0
VERTEX
  8
LL_3480
 62
     1
 10
552826
 20
3252881
  0
VERTEX
  8
LL_3480
 62
     1
 10
552866
 20
3252910
  0
SEQEND
  0
POLYLINE
  8
LL_3480
  6
CONTINUOUS
 62
     1
 66
     1
  0
VERTEX
  8
LL_3480
 62
     1
 10
552400
 20
3252515
  0
VERTEX
  8
LL_3480
 62
     1
 10
552565
 20
3252350
  0
VERTEX
  8
LL_3480
 62
     1
 10
552589
 20
3252335
  0
VERTEX
  8
LL_3480
 62
     1
 10
552691
 20
3252242
  0
SEQEND
  0
POLYLINE
  8
LL_3480
  6
CONTINUOUS
 62
     1
 66
     1
  0
VERTEX
  8
LL_3480
 62
     1
 10
552691
 20
3252242
  0
VERTEX
  8
LL_3480
 62
     1
 10
552733
 20
3252158
  0
VERTEX
  8
LL_3480
 62
     1
 10
552763
 20
3252131
  0
VERTEX
  8
LL_3480
 62
     1
 10
552799
 20
3252101
  0
VERTEX
  8
LL_3480
 62
     1
 10
552850
 20
3252044
  0
VERTEX
  8
LL_3480
 62
     1
 10
552870
 20
3252030
  0
SEQEND
  0
POLYLINE
  8
LL_3480
  6
CONTINUOUS
 62
     1
 66
     1
  0
VERTEX
  8
LL_3480
 62
     1
 10
552884
 20
3252747
  0
VERTEX
  8
LL_3480
 62
     1
 10
552859
 20
3252587
  0
VERTEX
  8
LL_3480
 62
     1
 10
552853
 20
3252518
  0
VERTEX
  8
LL_3480
 62
     1
 10
552853
 20
3252455
  0
VERTEX
  8
LL_3480
 62
     1
 10
552832
 20
3252398
  0
VERTEX
  8
LL_3480
 62
     1
 10
552790
 20
3252350
  0
VERTEX
  8
LL_3480
 62
     1
 10
552715
 20
3252272
  0
VERTEX
  8
LL_3480
 62
     1
 10
552691
 20
3252242
  0
SEQEND
  0
POLYLINE
  8
LL_3480
  6
CONTINUOUS
 62
     1
 66
     1
  0
VERTEX
  8
LL_3480
 62
     1
 10
549510
 20
3248137
  0
VERTEX
  8
LL_3480
 62
     1
 10
549382
 20
3248293
  0
VERTEX
  8
LL_3480
 62
     1
 10
549274
 20
3248218
  0
VERTEX
  8
LL_3480
 62
     1
 10
549286
 20
3248174
  0
SEQEND
  0
POLYLINE
  8
LL_3480
  6
CONTINUOUS
 62
     1
 66
     1
  0
VERTEX
  8
LL_3480
 62
     1
 10
551678
 20
3249611
  0
VERTEX
  8
LL_3480
 62
     1
 10
551648
 20
3249587
  0
VERTEX
  8
LL_3480
 62
     1
 10
551632
 20
3249556
  0
VERTEX
  8
LL_3480
 62
     1
 10
551626
 20
3249523
  0
VERTEX
  8
LL_3480
 62
     1
 10
551627
 20
3249497
  0
VERTEX
  8
LL_3480
 62
     1
 10
551634
 20
3249481
  0
SEQEND
  0
POLYLINE
  8
LL_3480
  6
CONTINUOUS
 62
     1
 66
     1
  0
VERTEX
  8
LL_3480
 62
     1
 10
550151
 20
3249308
  0
VERTEX
  8
LL_3480
 62
     1
 10
550207
 20
3249346
  0
VERTEX
  8
LL_3480
 62
     1
 10
550255
 20
3249360
  0
VERTEX
  8
LL_3480
 62
     1
 10
550315
 20
3249387
  0
VERTEX
  8
LL_3480
 62
     1
 10
550441
 20
3249454
  0
VERTEX
  8
LL_3480
 62
     1
 10
550459
 20
3249462
  0
VERTEX
  8
LL_3480
 62
     1
 10
550498
 20
3249412
  0
VERTEX
  8
LL_3480
 62
     1
 10
550510
 20
3249426
  0
VERTEX
  8
LL_3480
 62
     1
 10
550573
 20
3249357
  0
VERTEX
  8
LL_3480
 62
     1
 10
550612
 20
3249312
  0
VERTEX
  8
LL_3480
 62
     1
 10
550687
 20
3249382
  0
SEQEND
  0
POLYLINE
  8
LL_3480
  6
CONTINUOUS
 62
     1
 66
     1
  0
VERTEX
  8
LL_3480
 62
     1
 10
550764
 20
3250638
  0
VERTEX
  8
LL_3480
 62
     1
 10
550864
 20
3250757
  0
VERTEX
  8
LL_3480
 62
     1
 10
550897
 20
3250815
  0
VERTEX
  8
LL_3480
 62
     1
 10
550885
 20
3250878
  0
VERTEX
  8
LL_3480
 62
     1
 10
550888
 20
3250926
  0
VERTEX
  8
LL_3480
 62
     1
 10
550918
 20
3251013
  0
VERTEX
  8
LL_3480
 62
     1
 10
550921
 20
3251070
  0
VERTEX
  8
LL_3480
 62
     1
 10
550912
 20
3251115
  0
VERTEX
  8
LL_3480
 62
     1
 10
550888
 20
3251160
  0
VERTEX
  8
LL_3480
 62
     1
 10
550900
 20
3251217
  0
VERTEX
  8
LL_3480
 62
     1
 10
550921
 20
3251307
  0
VERTEX
  8
LL_3480
 62
     1
 10
550885
 20
3251349
  0
VERTEX
  8
LL_3480
 62
     1
 10
550828
 20
3251409
  0
VERTEX
  8
LL_3480
 62
     1
 10
550800
 20
3251440
  0
SEQEND
  0
POLYLINE
  8
LL_3480
  6
CONTINUOUS
 62
     1
 66
     1
  0
VERTEX
  8
LL_3480
 62
     1
 10
551385
 20
3249951
  0
VERTEX
  8
LL_3480
 62
     1
 10
551461
 20
3250035
  0
VERTEX
  8
LL_3480
 62
     1
 10
551581
 20
3250134
  0
VERTEX
  8
LL_3480
 62
     1
 10
551659
 20
3250176
  0
VERTEX
  8
LL_3480
 62
     1
 10
551776
 20
3250233
  0
VERTEX
  8
LL_3480
 62
     1
 10
551839
 20
3250281
  0
VERTEX
  8
LL_3480
 62
     1
 10
551878
 20
3250314
  0
VERTEX
  8
LL_3480
 62
     1
 10
551884
 20
3250335
  0
VERTEX
  8
LL_3480
 62
     1
 10
551855
 20
3250369
  0
SEQEND
  0
POLYLINE
  8
LL_3480
  6
CONTINUOUS
 62
     1
 66
     1
  0
VERTEX
  8
LL_3480
 62
     1
 10
552091
 20
3250674
  0
VERTEX
  8
LL_3480
 62
     1
 10
552214
 20
3250554
  0
VERTEX
  8
LL_3480
 62
     1
 10
552259
 20
3250521
  0
VERTEX
  8
LL_3480
 62
     1
 10
552298
 20
3250542
  0
VERTEX
  8
LL_3480
 62
     1
 10
552304
 20
3250566
  0
VERTEX
  8
LL_3480
 62
     1
 10
552466
 20
3250649
  0
VERTEX
  8
LL_3480
 62
     1
 10
552601
 20
3250542
  0
VERTEX
  8
LL_3480
 62
     1
 10
552802
 20
3250770
  0
SEQEND
  0
POLYLINE
  8
LL_3480
  6
CONTINUOUS
 62
     1
 66
     1
  0
VERTEX
  8
LL_3480
 62
     1
 10
551855
 20
3250369
  0
VERTEX
  8
LL_3480
 62
     1
 10
551992
 20
3250356
  0
VERTEX
  8
LL_3480
 62
     1
 10
552042
 20
3250366
  0
VERTEX
  8
LL_3480
 62
     1
 10
552175
 20
3250458
  0
VERTEX
  8
LL_3480
 62
     1
 10
552379
 20
3250233
  0
SEQEND
  0
POLYLINE
  8
LL_3480
  6
CONTINUOUS
 62
     1
 66
     1
  0
VERTEX
  8
LL_3480
 62
     1
 10
551356
 20
3251274
  0
VERTEX
  8
LL_3480
 62
     1
 10
551317
 20
3251238
  0
VERTEX
  8
LL_3480
 62
     1
 10
551251
 20
3251148
  0
VERTEX
  8
LL_3480
 62
     1
 10
551137
 20
3251031
  0
VERTEX
  8
LL_3480
 62
     1
 10
551101
 20
3250980
  0
VERTEX
  8
LL_3480
 62
     1
 10
551050
 20
3250905
  0
VERTEX
  8
LL_3480
 62
     1
 10
551023
 20
3250812
  0
VERTEX
  8
LL_3480
 62
     1
 10
550996
 20
3250734
  0
VERTEX
  8
LL_3480
 62
     1
 10
550971
 20
3250666
  0
SEQEND
  0
POLYLINE
  8
LL_3480
  6
CONTINUOUS
 62
     1
 66
     1
  0
VERTEX
  8
LL_3480
 62
     1
 10
554615
 20
3251482
  0
VERTEX
  8
LL_3480
 62
     1
 10
554515
 20
3251558
  0
VERTEX
  8
LL_3480
 62
     1
 10
554446
 20
3251606
  0
VERTEX
  8
LL_3480
 62
     1
 10
554395
 20
3251654
  0
VERTEX
  8
LL_3480
 62
     1
 10
554335
 20
3251684
  0
VERTEX
  8
LL_3480
 62
     1
 10
554242
 20
3251726
  0
VERTEX
  8
LL_3480
 62
     1
 10
554002
 20
3251459
  0
VERTEX
  8
LL_3480
 62
     1
 10
553827
 20
3251621
  0
SEQEND
  0
POLYLINE
  8
LL_3480
  6
CONTINUOUS
 62
     1
 66
     1
  0
VERTEX
  8
LL_3480
 62
     1
 10
553668
 20
3251466
  0
VERTEX
  8
LL_3480
 62
     1
 10
553713
 20
3251422
  0
SEQEND
  0
POLYLINE
  8
LL_3480
  6
CONTINUOUS
 62
     1
 66
     1
  0
VERTEX
  8
LL_3480
 62
     1
 10
553673
 20
3251160
  0
VERTEX
  8
LL_3480
 62
     1
 10
553591
 20
3251289
  0
SEQEND
  0
POLYLINE
  8
LL_3480
  6
CONTINUOUS
 62
     1
 66
     1
  0
VERTEX
  8
LL_3480
 62
     1
 10
553591
 20
3251289
  0
VERTEX
  8
LL_3480
 62
     1
 10
553547
 20
3251342
  0
SEQEND
  0
POLYLINE
  8
LL_3480
  6
CONTINUOUS
 62
     1
 66
     1
  0
VERTEX
  8
LL_3480
 62
     1
 10
553673
 20
3251349
  0
VERTEX
  8
LL_3480
 62
     1
 10
553646
 20
3251325
  0
VERTEX
  8
LL_3480
 62
     1
 10
553591
 20
3251289
  0
SEQEND
  0
POLYLINE
  8
LL_3480
  6
CONTINUOUS
 62
     1
 66
     1
  0
VERTEX
  8
LL_3480
 62
     1
 10
553365
 20
3252275
  0
VERTEX
  8
LL_3480
 62
     1
 10
553402
 20
3252239
  0
VERTEX
  8
LL_3480
 62
     1
 10
553447
 20
3252224
  0
VERTEX
  8
LL_3480
 62
     1
 10
553501
 20
3252287
  0
VERTEX
  8
LL_3480
 62
     1
 10
553576
 20
3252374
  0
VERTEX
  8
LL_3480
 62
     1
 10
553636
 20
3252434
  0
VERTEX
  8
LL_3480
 62
     1
 10
553657
 20
3252443
  0
VERTEX
  8
LL_3480
 62
     1
 10
553687
 20
3252443
  0
VERTEX
  8
LL_3480
 62
     1
 10
553714
 20
3252425
  0
VERTEX
  8
LL_3480
 62
     1
 10
553732
 20
3252434
  0
VERTEX
  8
LL_3480
 62
     1
 10
553860
 20
3252554
  0
VERTEX
  8
LL_3480
 62
     1
 10
553942
 20
3252650
  0
VERTEX
  8
LL_3480
 62
     1
 10
554017
 20
3252752
  0
VERTEX
  8
LL_3480
 62
     1
 10
554038
 20
3252815
  0
VERTEX
  8
LL_3480
 62
     1
 10
554046
 20
3252879
  0
SEQEND
  0
POLYLINE
  8
LL_3480
  6
CONTINUOUS
 62
     1
 66
     1
  0
VERTEX
  8
LL_3480
 62
     1
 10
552217
 20
3252126
  0
VERTEX
  8
LL_3480
 62
     1
 10
552025
 20
3251861
  0
VERTEX
  8
LL_3480
 62
     1
 10
551914
 20
3251711
  0
SEQEND
  0
POLYLINE
  8
LL_3480
  6
CONTINUOUS
 62
     1
 66
     1
  0
VERTEX
  8
LL_3480
 62
     1
 10
551914
 20
3251711
  0
VERTEX
  8
LL_3480
 62
     1
 10
551698
 20
3251843
  0
VERTEX
  8
LL_3480
 62
     1
 10
551641
 20
3251876
  0
SEQEND
  0
POLYLINE
  8
LL_3480
  6
CONTINUOUS
 62
     1
 66
     1
  0
VERTEX
  8
LL_3480
 62
     1
 10
551641
 20
3251876
  0
VERTEX
  8
LL_3480
 62
     1
 10
551659
 20
3251901
  0
SEQEND
  0
POLYLINE
  8
LL_3480
  6
CONTINUOUS
 62
     1
 66
     1
  0
VERTEX
  8
LL_3480
 62
     1
 10
554046
 20
3252879
  0
VERTEX
  8
LL_3480
 62
     1
 10
554053
 20
3252929
  0
VERTEX
  8
LL_3480
 62
     1
 10
554104
 20
3253142
  0
VERTEX
  8
LL_3480
 62
     1
 10
554120
 20
3253199
  0
SEQEND
  0
POLYLINE
  8
LL_3480
  6
CONTINUOUS
 62
     1
 66
     1
  0
VERTEX
  8
LL_3480
 62
     1
 10
554046
 20
3252879
  0
VERTEX
  8
LL_3480
 62
     1
 10
554191
 20
3252960
  0
VERTEX
  8
LL_3480
 62
     1
 10
554242
 20
3252996
  0
VERTEX
  8
LL_3480
 62
     1
 10
554290
 20
3253011
  0
VERTEX
  8
LL_3480
 62
     1
 10
554380
 20
3252891
  0
VERTEX
  8
LL_3480
 62
     1
 10
554398
 20
3252875
  0
VERTEX
  8
LL_3480
 62
     1
 10
554471
 20
3252954
  0
SEQEND
  0
POLYLINE
  8
LL_3480
  6
CONTINUOUS
 62
     1
 66
     1
  0
VERTEX
  8
LL_3480
 62
     1
 10
554354
 20
3253733
  0
VERTEX
  8
LL_3480
 62
     1
 10
554386
 20
3253772
  0
VERTEX
  8
LL_3480
 62
     1
 10
554422
 20
3253850
  0
VERTEX
  8
LL_3480
 62
     1
 10
554473
 20
3253883
  0
VERTEX
  8
LL_3480
 62
     1
 10
554551
 20
3253955
  0
VERTEX
  8
LL_3480
 62
     1
 10
554593
 20
3253958
  0
VERTEX
  8
LL_3480
 62
     1
 10
554656
 20
3254017
  0
VERTEX
  8
LL_3480
 62
     1
 10
554800
 20
3254174
  0
VERTEX
  8
LL_3480
 62
     1
 10
554899
 20
3254318
  0
VERTEX
  8
LL_3480
 62
     1
 10
555046
 20
3254250
  0
SEQEND
  0
POLYLINE
  8
LL_3480
  6
CONTINUOUS
 62
     1
 66
     1
  0
VERTEX
  8
LL_3480
 62
     1
 10
541607
 20
3249439
  0
VERTEX
  8
LL_3480
 62
     1
 10
541625
 20
3249418
  0
VERTEX
  8
LL_3480
 62
     1
 10
541853
 20
3248782
  0
VERTEX
  8
LL_3480
 62
     1
 10
542129
 20
3247969
  0
VERTEX
  8
LL_3480
 62
     1
 10
542191
 20
3247758
  0
VERTEX
  8
LL_3480
 62
     1
 10
542336
 20
3247414
  0
VERTEX
  8
LL_3480
 62
     1
 10
543023
 20
3247153
  0
VERTEX
  8
LL_3480
 62
     1
 10
543260
 20
3247065
  0
VERTEX
  8
LL_3480
 62
     1
 10
543820
 20
3246861
  0
VERTEX
  8
LL_3480
 62
     1
 10
544282
 20
3246693
  0
VERTEX
  8
LL_3480
 62
     1
 10
544264
 20
3246646
  0
VERTEX
  8
LL_3480
 62
     1
 10
544111
 20
3246409
  0
VERTEX
  8
LL_3480
 62
     1
 10
543904
 20
3246085
  0
VERTEX
  8
LL_3480
 62
     1
 10
543214
 20
3244999
  0
VERTEX
  8
LL_3480
 62
     1
 10
543049
 20
3244735
  0
VERTEX
  8
LL_3480
 62
     1
 10
542793
 20
3244330
  0
SEQEND
  0
POLYLINE
  8
LL_3480
  6
CONTINUOUS
 62
     1
 66
     1
  0
VERTEX
  8
LL_3480
 62
     1
 10
555408
 20
3250171
  0
VERTEX
  8
LL_3480
 62
     1
 10
555402
 20
3250231
  0
VERTEX
  8
LL_3480
 62
     1
 10
555404
 20
3250247
  0
SEQEND
  0
POLYLINE
  8
LL_3480
  6
CONTINUOUS
 62
     1
 66
     1
  0
VERTEX
  8
LL_3480
 62
     1
 10
555404
 20
3250247
  0
VERTEX
  8
LL_3480
 62
     1
 10
555415
 20
3250340
  0
VERTEX
  8
LL_3480
 62
     1
 10
555472
 20
3250679
  0
VERTEX
  8
LL_3480
 62
     1
 10
555504
 20
3250847
  0
VERTEX
  8
LL_3480
 62
     1
 10
555598
 20
3251404
  0
VERTEX
  8
LL_3480
 62
     1
 10
555640
 20
3251663
  0
VERTEX
  8
LL_3480
 62
     1
 10
555278
 20
3251728
  0
SEQEND
  0
POLYLINE
  8
LL_3480
  6
CONTINUOUS
 62
     1
 66
     1
  0
VERTEX
  8
LL_3480
 62
     1
 10
554896
 20
3251135
  0
VERTEX
  8
LL_3480
 62
     1
 10
555360
 20
3250583
  0
SEQEND
  0
POLYLINE
  8
LL_3480
  6
CONTINUOUS
 62
     1
 66
     1
  0
VERTEX
  8
LL_3480
 62
     1
 10
554896
 20
3251135
  0
VERTEX
  8
LL_3480
 62
     1
 10
554828
 20
3250882
  0
VERTEX
  8
LL_3480
 62
     1
 10
555225
 20
3250426
  0
VERTEX
  8
LL_3480
 62
     1
 10
555404
 20
3250247
  0
SEQEND
  0
POLYLINE
  8
LL_3480
  6
CONTINUOUS
 62
     1
 66
     1
  0
VERTEX
  8
LL_3480
 62
     1
 10
554896
 20
3251135
  0
VERTEX
  8
LL_3480
 62
     1
 10
554938
 20
3251291
  0
VERTEX
  8
LL_3480
 62
     1
 10
554964
 20
3251369
  0
VERTEX
  8
LL_3480
 62
     1
 10
555229
 20
3251033
  0
SEQEND
  0
POLYLINE
  8
LL_3480
  6
CONTINUOUS
 62
     1
 66
     1
  0
VERTEX
  8
LL_3480
 62
     1
 10
554909
 20
3253030
  0
VERTEX
  8
LL_3480
 62
     1
 10
554971
 20
3252975
  0
VERTEX
  8
LL_3480
 62
     1
 10
554992
 20
3253017
  0
VERTEX
  8
LL_3480
 62
     1
 10
555019
 20
3253035
  0
VERTEX
  8
LL_3480
 62
     1
 10
555055
 20
3253005
  0
VERTEX
  8
LL_3480
 62
     1
 10
555079
 20
3252953
  0
VERTEX
  8
LL_3480
 62
     1
 10
555040
 20
3252936
  0
VERTEX
  8
LL_3480
 62
     1
 10
554977
 20
3252903
  0
VERTEX
  8
LL_3480
 62
     1
 10
554899
 20
3252852
  0
VERTEX
  8
LL_3480
 62
     1
 10
554746
 20
3252717
  0
VERTEX
  8
LL_3480
 62
     1
 10
554779
 20
3252683
  0
VERTEX
  8
LL_3480
 62
     1
 10
554824
 20
3252649
  0
SEQEND
  0
POLYLINE
  8
LL_3480
  6
CONTINUOUS
 62
     1
 66
     1
  0
VERTEX
  8
LL_3480
 62
     1
 10
554756
 20
3253706
  0
VERTEX
  8
LL_3480
 62
     1
 10
555070
 20
3253989
  0
VERTEX
  8
LL_3480
 62
     1
 10
555202
 20
3254103
  0
SEQEND
  0
POLYLINE
  8
LL_3480
  6
CONTINUOUS
 62
     1
 66
     1
  0
VERTEX
  8
LL_3480
 62
     1
 10
555202
 20
3254103
  0
VERTEX
  8
LL_3480
 62
     1
 10
555364
 20
3253700
  0
VERTEX
  8
LL_3480
 62
     1
 10
555437
 20
3253512
  0
SEQEND
  0
POLYLINE
  8
LL_3480
  6
CONTINUOUS
 62
     1
 66
     1
  0
VERTEX
  8
LL_3480
 62
     1
 10
555437
 20
3253512
  0
VERTEX
  8
LL_3480
 62
     1
 10
555493
 20
3253370
  0
VERTEX
  8
LL_3480
 62
     1
 10
555600
 20
3253127
  0
SEQEND
  0
POLYLINE
  8
LL_3480
  6
CONTINUOUS
 62
     1
 66
     1
  0
VERTEX
  8
LL_3480
 62
     1
 10
554881
 20
3253570
  0
VERTEX
  8
LL_3480
 62
     1
 10
554929
 20
3253497
  0
VERTEX
  8
LL_3480
 62
     1
 10
554947
 20
3253437
  0
VERTEX
  8
LL_3480
 62
     1
 10
554944
 20
3253404
  0
VERTEX
  8
LL_3480
 62
     1
 10
554917
 20
3253350
  0
VERTEX
  8
LL_3480
 62
     1
 10
554884
 20
3253260
  0
VERTEX
  8
LL_3480
 62
     1
 10
554845
 20
3253100
  0
VERTEX
  8
LL_3480
 62
     1
 10
554884
 20
3253053
  0
VERTEX
  8
LL_3480
 62
     1
 10
554909
 20
3253030
  0
SEQEND
  0
POLYLINE
  8
LL_3480
  6
CONTINUOUS
 62
     1
 66
     1
  0
VERTEX
  8
LL_3480
 62
     1
 10
554909
 20
3253030
  0
VERTEX
  8
LL_3480
 62
     1
 10
555088
 20
3253200
  0
VERTEX
  8
LL_3480
 62
     1
 10
555376
 20
3253455
  0
VERTEX
  8
LL_3480
 62
     1
 10
555437
 20
3253512
  0
SEQEND
  0
POLYLINE
  8
LL_3480
  6
CONTINUOUS
 62
     1
 66
     1
  0
VERTEX
  8
LL_3480
 62
     1
 10
555202
 20
3254103
  0
VERTEX
  8
LL_3480
 62
     1
 10
555259
 20
3254117
  0
VERTEX
  8
LL_3480
 62
     1
 10
555583
 20
3254087
  0
VERTEX
  8
LL_3480
 62
     1
 10
555643
 20
3254079
  0
SEQEND
  0
POLYLINE
  8
LL_3480
  6
CONTINUOUS
 62
     1
 66
     1
  0
VERTEX
  8
LL_3480
 62
     1
 10
555643
 20
3254079
  0
VERTEX
  8
LL_3480
 62
     1
 10
555775
 20
3254075
  0
VERTEX
  8
LL_3480
 62
     1
 10
555871
 20
3254108
  0
VERTEX
  8
LL_3480
 62
     1
 10
556027
 20
3254204
  0
VERTEX
  8
LL_3480
 62
     1
 10
556135
 20
3254286
  0
VERTEX
  8
LL_3480
 62
     1
 10
556126
 20
3254339
  0
VERTEX
  8
LL_3480
 62
     1
 10
556024
 20
3254553
  0
SEQEND
  0
POLYLINE
  8
LL_3480
  6
CONTINUOUS
 62
     1
 66
     1
  0
VERTEX
  8
LL_3480
 62
     1
 10
555202
 20
3254103
  0
VERTEX
  8
LL_3480
 62
     1
 10
555151
 20
3254228
  0
VERTEX
  8
LL_3480
 62
     1
 10
555115
 20
3254294
  0
SEQEND
  0
POLYLINE
  8
LL_3480
  6
CONTINUOUS
 62
     1
 66
     1
  0
VERTEX
  8
LL_3480
 62
     1
 10
555931
 20
3254592
  0
VERTEX
  8
LL_3480
 62
     1
 10
555889
 20
3254567
  0
VERTEX
  8
LL_3480
 62
     1
 10
555853
 20
3254558
  0
VERTEX
  8
LL_3480
 62
     1
 10
555847
 20
3254558
  0
VERTEX
  8
LL_3480
 62
     1
 10
555823
 20
3254597
  0
VERTEX
  8
LL_3480
 62
     1
 10
555730
 20
3254822
  0
VERTEX
  8
LL_3480
 62
     1
 10
555694
 20
3254835
  0
VERTEX
  8
LL_3480
 62
     1
 10
555646
 20
3254822
  0
VERTEX
  8
LL_3480
 62
     1
 10
555625
 20
3254796
  0
VERTEX
  8
LL_3480
 62
     1
 10
555586
 20
3254805
  0
VERTEX
  8
LL_3480
 62
     1
 10
555487
 20
3254831
  0
SEQEND
  0
POLYLINE
  8
LL_3480
  6
CONTINUOUS
 62
     1
 66
     1
  0
VERTEX
  8
LL_3480
 62
     1
 10
551855
 20
3250369
  0
VERTEX
  8
LL_3480
 62
     1
 10
551845
 20
3250383
  0
VERTEX
  8
LL_3480
 62
     1
 10
551941
 20
3250527
  0
VERTEX
  8
LL_3480
 62
     1
 10
551980
 20
3250581
  0
VERTEX
  8
LL_3480
 62
     1
 10
552046
 20
3250620
  0
VERTEX
  8
LL_3480
 62
     1
 10
552091
 20
3250674
  0
SEQEND
  0
POLYLINE
  8
LL_3480
  6
CONTINUOUS
 62
     1
 66
     1
  0
VERTEX
  8
LL_3480
 62
     1
 10
552379
 20
3250233
  0
VERTEX
  8
LL_3480
 62
     1
 10
552340
 20
3250164
  0
VERTEX
  8
LL_3480
 62
     1
 10
552355
 20
3250083
  0
VERTEX
  8
LL_3480
 62
     1
 10
552183
 20
3250035
  0
SEQEND
  0
POLYLINE
  8
LL_3480
  6
CONTINUOUS
 62
     1
 66
     1
  0
VERTEX
  8
LL_3480
 62
     1
 10
552379
 20
3250233
  0
VERTEX
  8
LL_3480
 62
     1
 10
552556
 20
3250424
  0
VERTEX
  8
LL_3480
 62
     1
 10
552592
 20
3250398
  0
VERTEX
  8
LL_3480
 62
     1
 10
552622
 20
3250356
  0
VERTEX
  8
LL_3480
 62
     1
 10
552574
 20
3250310
  0
VERTEX
  8
LL_3480
 62
     1
 10
552624
 20
3250235
  0
SEQEND
  0
POLYLINE
  8
LL_3480
  6
CONTINUOUS
 62
     1
 66
     1
  0
VERTEX
  8
LL_3480
 62
     1
 10
551641
 20
3251876
  0
VERTEX
  8
LL_3480
 62
     1
 10
551599
 20
3251852
  0
VERTEX
  8
LL_3480
 62
     1
 10
551548
 20
3251784
  0
VERTEX
  8
LL_3480
 62
     1
 10
551479
 20
3251702
  0
VERTEX
  8
LL_3480
 62
     1
 10
551446
 20
3251657
  0
VERTEX
  8
LL_3480
 62
     1
 10
551368
 20
3251624
  0
VERTEX
  8
LL_3480
 62
     1
 10
551281
 20
3251577
  0
VERTEX
  8
LL_3480
 62
     1
 10
551215
 20
3251544
  0
VERTEX
  8
LL_3480
 62
     1
 10
551158
 20
3251523
  0
SEQEND
  0
POLYLINE
  8
LL_3480
  6
CONTINUOUS
 62
     1
 66
     1
  0
VERTEX
  8
LL_3480
 62
     1
 10
551158
 20
3251523
  0
VERTEX
  8
LL_3480
 62
     1
 10
551143
 20
3251535
  0
VERTEX
  8
LL_3480
 62
     1
 10
551128
 20
3251556
  0
VERTEX
  8
LL_3480
 62
     1
 10
551128
 20
3251577
  0
SEQEND
  0
POLYLINE
  8
LL_3480
  6
CONTINUOUS
 62
     1
 66
     1
  0
VERTEX
  8
LL_3480
 62
     1
 10
556676
 20
3249605
  0
VERTEX
  8
LL_3480
 62
     1
 10
556732
 20
3249989
  0
VERTEX
  8
LL_3480
 62
     1
 10
556771
 20
3250262
  0
VERTEX
  8
LL_3480
 62
     1
 10
556776
 20
3250352
  0
VERTEX
  8
LL_3480
 62
     1
 10
556787
 20
3250402
  0
SEQEND
  0
POLYLINE
  8
LL_3480
  6
CONTINUOUS
 62
     1
 66
     1
  0
VERTEX
  8
LL_3480
 62
     1
 10
556250
 20
3250404
  0
VERTEX
  8
LL_3480
 62
     1
 10
556186
 20
3250402
  0
VERTEX
  8
LL_3480
 62
     1
 10
556144
 20
3250450
  0
VERTEX
  8
LL_3480
 62
     1
 10
556111
 20
3250519
  0
VERTEX
  8
LL_3480
 62
     1
 10
555936
 20
3250177
  0
VERTEX
  8
LL_3480
 62
     1
 10
555856
 20
3250027
  0
VERTEX
  8
LL_3480
 62
     1
 10
555768
 20
3249880
  0
VERTEX
  8
LL_3480
 62
     1
 10
556437
 20
3249713
  0
VERTEX
  8
LL_3480
 62
     1
 10
556492
 20
3249698
  0
VERTEX
  8
LL_3480
 62
     1
 10
556593
 20
3249664
  0
VERTEX
  8
LL_3480
 62
     1
 10
556633
 20
3249651
  0
SEQEND
  0
POLYLINE
  8
LL_3480
  6
CONTINUOUS
 62
     1
 66
     1
  0
VERTEX
  8
LL_3480
 62
     1
 10
556511
 20
3254980
  0
VERTEX
  8
LL_3480
 62
     1
 10
556528
 20
3254963
  0
VERTEX
  8
LL_3480
 62
     1
 10
556657
 20
3254849
  0
VERTEX
  8
LL_3480
 62
     1
 10
556774
 20
3254636
  0
VERTEX
  8
LL_3480
 62
     1
 10
556819
 20
3254531
  0
VERTEX
  8
LL_3480
 62
     1
 10
556879
 20
3254456
  0
VERTEX
  8
LL_3480
 62
     1
 10
556927
 20
3254411
  0
SEQEND
  0
POLYLINE
  8
LL_3480
  6
CONTINUOUS
 62
     1
 66
     1
  0
VERTEX
  8
LL_3480
 62
     1
 10
556927
 20
3254411
  0
VERTEX
  8
LL_3480
 62
     1
 10
556786
 20
3254318
  0
VERTEX
  8
LL_3480
 62
     1
 10
556720
 20
3254297
  0
VERTEX
  8
LL_3480
 62
     1
 10
556663
 20
3254300
  0
VERTEX
  8
LL_3480
 62
     1
 10
556627
 20
3254306
  0
VERTEX
  8
LL_3480
 62
     1
 10
556624
 20
3254306
  0
VERTEX
  8
LL_3480
 62
     1
 10
556582
 20
3254333
  0
VERTEX
  8
LL_3480
 62
     1
 10
556471
 20
3254441
  0
VERTEX
  8
LL_3480
 62
     1
 10
556294
 20
3254345
  0
SEQEND
  0
POLYLINE
  8
LL_3480
  6
CONTINUOUS
 62
     1
 66
     1
  0
VERTEX
  8
LL_3480
 62
     1
 10
556294
 20
3254345
  0
VERTEX
  8
LL_3480
 62
     1
 10
556279
 20
3254387
  0
VERTEX
  8
LL_3480
 62
     1
 10
556234
 20
3254429
  0
VERTEX
  8
LL_3480
 62
     1
 10
556111
 20
3254519
  0
VERTEX
  8
LL_3480
 62
     1
 10
556066
 20
3254543
  0
VERTEX
  8
LL_3480
 62
     1
 10
556024
 20
3254553
  0
SEQEND
  0
POLYLINE
  8
LL_3480
  6
CONTINUOUS
 62
     1
 66
     1
  0
VERTEX
  8
LL_3480
 62
     1
 10
556024
 20
3254553
  0
VERTEX
  8
LL_3480
 62
     1
 10
555973
 20
3254570
  0
VERTEX
  8
LL_3480
 62
     1
 10
555931
 20
3254592
  0
SEQEND
  0
POLYLINE
  8
LL_3480
  6
CONTINUOUS
 62
     1
 66
     1
  0
VERTEX
  8
LL_3480
 62
     1
 10
555931
 20
3254592
  0
VERTEX
  8
LL_3480
 62
     1
 10
556006
 20
3254697
  0
VERTEX
  8
LL_3480
 62
     1
 10
556072
 20
3254772
  0
VERTEX
  8
LL_3480
 62
     1
 10
556186
 20
3254933
  0
VERTEX
  8
LL_3480
 62
     1
 10
556231
 20
3254916
  0
VERTEX
  8
LL_3480
 62
     1
 10
556408
 20
3255078
  0
SEQEND
  0
POLYLINE
  8
LL_3480
  6
CONTINUOUS
 62
     1
 66
     1
  0
VERTEX
  8
LL_3480
 62
     1
 10
556294
 20
3254345
  0
VERTEX
  8
LL_3480
 62
     1
 10
556240
 20
3254259
  0
VERTEX
  8
LL_3480
 62
     1
 10
556180
 20
3254196
  0
VERTEX
  8
LL_3480
 62
     1
 10
556123
 20
3254151
  0
VERTEX
  8
LL_3480
 62
     1
 10
556063
 20
3254109
  0
VERTEX
  8
LL_3480
 62
     1
 10
555985
 20
3254073
  0
VERTEX
  8
LL_3480
 62
     1
 10
556117
 20
3253884
  0
VERTEX
  8
LL_3480
 62
     1
 10
556192
 20
3253779
  0
SEQEND
  0
POLYLINE
  8
LL_3480
  6
CONTINUOUS
 62
     1
 66
     1
  0
VERTEX
  8
LL_3480
 62
     1
 10
556408
 20
3255078
  0
VERTEX
  8
LL_3480
 62
     1
 10
556511
 20
3254980
  0
SEQEND
  0
POLYLINE
  8
LL_3480
  6
CONTINUOUS
 62
     1
 66
     1
  0
VERTEX
  8
LL_3480
 62
     1
 10
556408
 20
3255078
  0
VERTEX
  8
LL_3480
 62
     1
 10
556312
 20
3255189
  0
VERTEX
  8
LL_3480
 62
     1
 10
556225
 20
3255093
  0
VERTEX
  8
LL_3480
 62
     1
 10
556153
 20
3254999
  0
VERTEX
  8
LL_3480
 62
     1
 10
556120
 20
3254988
  0
VERTEX
  8
LL_3480
 62
     1
 10
556051
 20
3255002
  0
VERTEX
  8
LL_3480
 62
     1
 10
555985
 20
3255002
  0
VERTEX
  8
LL_3480
 62
     1
 10
555907
 20
3255005
  0
VERTEX
  8
LL_3480
 62
     1
 10
555874
 20
3255008
  0
VERTEX
  8
LL_3480
 62
     1
 10
555835
 20
3255046
  0
SEQEND
  0
POLYLINE
  8
LL_3480
  6
CONTINUOUS
 62
     1
 66
     1
  0
VERTEX
  8
LL_3480
 62
     1
 10
556511
 20
3254980
  0
VERTEX
  8
LL_3480
 62
     1
 10
557011
 20
3255363
  0
VERTEX
  8
LL_3480
 62
     1
 10
557080
 20
3255236
  0
VERTEX
  8
LL_3480
 62
     1
 10
557272
 20
3254882
  0
VERTEX
  8
LL_3480
 62
     1
 10
557425
 20
3254614
  0
VERTEX
  8
LL_3480
 62
     1
 10
557571
 20
3254464
  0
SEQEND
  0
POLYLINE
  8
LL_3480
  6
CONTINUOUS
 62
     1
 66
     1
  0
VERTEX
  8
LL_3480
 62
     1
 10
556051
 20
3256400
  0
VERTEX
  8
LL_3480
 62
     1
 10
556132
 20
3256249
  0
VERTEX
  8
LL_3480
 62
     1
 10
556270
 20
3255985
  0
VERTEX
  8
LL_3480
 62
     1
 10
556285
 20
3255957
  0
SEQEND
  0
POLYLINE
  8
LL_3480
  6
CONTINUOUS
 62
     1
 66
     1
  0
VERTEX
  8
LL_3480
 62
     1
 10
556285
 20
3255957
  0
VERTEX
  8
LL_3480
 62
     1
 10
556337
 20
3255860
  0
SEQEND
  0
POLYLINE
  8
LL_3480
  6
CONTINUOUS
 62
     1
 66
     1
  0
VERTEX
  8
LL_3480
 62
     1
 10
555848
 20
3255816
  0
VERTEX
  8
LL_3480
 62
     1
 10
555976
 20
3255853
  0
VERTEX
  8
LL_3480
 62
     1
 10
555976
 20
3255904
  0
VERTEX
  8
LL_3480
 62
     1
 10
556075
 20
3255958
  0
VERTEX
  8
LL_3480
 62
     1
 10
556114
 20
3255973
  0
VERTEX
  8
LL_3480
 62
     1
 10
556285
 20
3255957
  0
SEQEND
  0
POLYLINE
  8
LL_3480
  6
CONTINUOUS
 62
     1
 66
     1
  0
VERTEX
  8
LL_3480
 62
     1
 10
556285
 20
3255957
  0
VERTEX
  8
LL_3480
 62
     1
 10
556426
 20
3255958
  0
VERTEX
  8
LL_3480
 62
     1
 10
556492
 20
3256013
  0
SEQEND
  0
POLYLINE
  8
LL_3480
  6
CONTINUOUS
 62
     1
 66
     1
  0
VERTEX
  8
LL_3480
 62
     1
 10
556243
 20
3256532
  0
VERTEX
  8
LL_3480
 62
     1
 10
556291
 20
3256561
  0
VERTEX
  8
LL_3480
 62
     1
 10
556360
 20
3256561
  0
VERTEX
  8
LL_3480
 62
     1
 10
556417
 20
3256579
  0
VERTEX
  8
LL_3480
 62
     1
 10
556459
 20
3256594
  0
VERTEX
  8
LL_3480
 62
     1
 10
556525
 20
3256555
  0
VERTEX
  8
LL_3480
 62
     1
 10
556549
 20
3256528
  0
VERTEX
  8
LL_3480
 62
     1
 10
556546
 20
3256480
  0
VERTEX
  8
LL_3480
 62
     1
 10
556567
 20
3256372
  0
VERTEX
  8
LL_3480
 62
     1
 10
556574
 20
3256351
  0
SEQEND
  0
POLYLINE
  8
LL_3480
  6
CONTINUOUS
 62
     1
 66
     1
  0
VERTEX
  8
LL_3480
 62
     1
 10
556574
 20
3256351
  0
VERTEX
  8
LL_3480
 62
     1
 10
556639
 20
3256155
  0
SEQEND
  0
POLYLINE
  8
LL_3480
  6
CONTINUOUS
 62
     1
 66
     1
  0
VERTEX
  8
LL_3480
 62
     1
 10
556844
 20
3256684
  0
VERTEX
  8
LL_3480
 62
     1
 10
556861
 20
3256582
  0
VERTEX
  8
LL_3480
 62
     1
 10
556873
 20
3256492
  0
VERTEX
  8
LL_3480
 62
     1
 10
556813
 20
3256465
  0
VERTEX
  8
LL_3480
 62
     1
 10
556663
 20
3256432
  0
VERTEX
  8
LL_3480
 62
     1
 10
556618
 20
3256408
  0
VERTEX
  8
LL_3480
 62
     1
 10
556606
 20
3256360
  0
VERTEX
  8
LL_3480
 62
     1
 10
556574
 20
3256351
  0
SEQEND
  0
POLYLINE
  8
LL_3480
  6
CONTINUOUS
 62
     1
 66
     1
  0
VERTEX
  8
LL_3480
 62
     1
 10
556918
 20
3250306
  0
VERTEX
  8
LL_3480
 62
     1
 10
557533
 20
3250223
  0
VERTEX
  8
LL_3480
 62
     1
 10
557652
 20
3250207
  0
VERTEX
  8
LL_3480
 62
     1
 10
558243
 20
3250124
  0
VERTEX
  8
LL_3480
 62
     1
 10
558370
 20
3250093
  0
VERTEX
  8
LL_3480
 62
     1
 10
558603
 20
3250075
  0
VERTEX
  8
LL_3480
 62
     1
 10
559033
 20
3250016
  0
VERTEX
  8
LL_3480
 62
     1
 10
559107
 20
3250009
  0
SEQEND
  0
POLYLINE
  8
LL_3480
  6
CONTINUOUS
 62
     1
 66
     1
  0
VERTEX
  8
LL_3480
 62
     1
 10
558295
 20
3253738
  0
VERTEX
  8
LL_3480
 62
     1
 10
558247
 20
3253714
  0
VERTEX
  8
LL_3480
 62
     1
 10
558169
 20
3253709
  0
VERTEX
  8
LL_3480
 62
     1
 10
558025
 20
3253756
  0
VERTEX
  8
LL_3480
 62
     1
 10
557959
 20
3253769
  0
VERTEX
  8
LL_3480
 62
     1
 10
557878
 20
3253762
  0
VERTEX
  8
LL_3480
 62
     1
 10
557809
 20
3253753
  0
VERTEX
  8
LL_3480
 62
     1
 10
557890
 20
3253482
  0
SEQEND
  0
POLYLINE
  8
LL_3480
  6
CONTINUOUS
 62
     1
 66
     1
  0
VERTEX
  8
LL_3480
 62
     1
 10
556927
 20
3254411
  0
VERTEX
  8
LL_3480
 62
     1
 10
556981
 20
3254333
  0
VERTEX
  8
LL_3480
 62
     1
 10
557119
 20
3254159
  0
VERTEX
  8
LL_3480
 62
     1
 10
557212
 20
3254049
  0
SEQEND
  0
POLYLINE
  8
LL_3480
  6
CONTINUOUS
 62
     1
 66
     1
  0
VERTEX
  8
LL_3480
 62
     1
 10
557788
 20
3254611
  0
VERTEX
  8
LL_3480
 62
     1
 10
558004
 20
3254004
  0
SEQEND
  0
POLYLINE
  8
LL_3480
  6
CONTINUOUS
 62
     1
 66
     1
  0
VERTEX
  8
LL_3480
 62
     1
 10
558004
 20
3254004
  0
VERTEX
  8
LL_3480
 62
     1
 10
557677
 20
3253881
  0
VERTEX
  8
LL_3480
 62
     1
 10
557686
 20
3253854
  0
SEQEND
  0
POLYLINE
  8
LL_3480
  6
CONTINUOUS
 62
     1
 66
     1
  0
VERTEX
  8
LL_3480
 62
     1
 10
557883
 20
3255473
  0
VERTEX
  8
LL_3480
 62
     1
 10
557938
 20
3255481
  0
VERTEX
  8
LL_3480
 62
     1
 10
557998
 20
3255307
  0
VERTEX
  8
LL_3480
 62
     1
 10
557923
 20
3255214
  0
VERTEX
  8
LL_3480
 62
     1
 10
557836
 20
3255154
  0
VERTEX
  8
LL_3480
 62
     1
 10
557665
 20
3255052
  0
VERTEX
  8
LL_3480
 62
     1
 10
557749
 20
3254908
  0
SEQEND
  0
POLYLINE
  8
LL_3480
  6
CONTINUOUS
 62
     1
 66
     1
  0
VERTEX
  8
LL_3480
 62
     1
 10
551605
 20
3249470
  0
VERTEX
  8
LL_3480
 62
     1
 10
551634
 20
3249481
  0
SEQEND
  0
POLYLINE
  8
LL_3480
  6
CONTINUOUS
 62
     1
 66
     1
  0
VERTEX
  8
LL_3480
 62
     1
 10
557794
 20
3257300
  0
VERTEX
  8
LL_3480
 62
     1
 10
557835
 20
3257342
  0
VERTEX
  8
LL_3480
 62
     1
 10
557985
 20
3257444
  0
VERTEX
  8
LL_3480
 62
     1
 10
558097
 20
3257525
  0
VERTEX
  8
LL_3480
 62
     1
 10
558117
 20
3257513
  0
VERTEX
  8
LL_3480
 62
     1
 10
558123
 20
3257492
  0
VERTEX
  8
LL_3480
 62
     1
 10
558211
 20
3257554
  0
SEQEND
  0
POLYLINE
  8
LL_3480
  6
CONTINUOUS
 62
     1
 66
     1
  0
VERTEX
  8
LL_3480
 62
     1
 10
557844
 20
3257074
  0
VERTEX
  8
LL_3480
 62
     1
 10
557925
 20
3257105
  0
VERTEX
  8
LL_3480
 62
     1
 10
557982
 20
3257114
  0
VERTEX
  8
LL_3480
 62
     1
 10
558066
 20
3257132
  0
VERTEX
  8
LL_3480
 62
     1
 10
558253
 20
3257159
  0
VERTEX
  8
LL_3480
 62
     1
 10
558304
 20
3257198
  0
SEQEND
  0
POLYLINE
  8
LL_3480
  6
CONTINUOUS
 62
     1
 66
     1
  0
VERTEX
  8
LL_3480
 62
     1
 10
555930
 20
3253558
  0
VERTEX
  8
LL_3480
 62
     1
 10
555871
 20
3253668
  0
VERTEX
  8
LL_3480
 62
     1
 10
555715
 20
3253950
  0
VERTEX
  8
LL_3480
 62
     1
 10
555643
 20
3254079
  0
SEQEND
  0
POLYLINE
  8
LL_3480
  6
CONTINUOUS
 62
     1
 66
     1
  0
VERTEX
  8
LL_3480
 62
     1
 10
555643
 20
3254079
  0
VERTEX
  8
LL_3480
 62
     1
 10
555562
 20
3254229
  0
VERTEX
  8
LL_3480
 62
     1
 10
555355
 20
3254600
  0
VERTEX
  8
LL_3480
 62
     1
 10
555252
 20
3254795
  0
SEQEND
  0
POLYLINE
  8
LL_3480
  6
CONTINUOUS
 62
     1
 66
     1
  0
VERTEX
  8
LL_3480
 62
     1
 10
549648
 20
3242012
  0
VERTEX
  8
LL_3480
 62
     1
 10
550183
 20
3242041
  0
VERTEX
  8
LL_3480
 62
     1
 10
551086
 20
3242107
  0
VERTEX
  8
LL_3480
 62
     1
 10
551482
 20
3242140
  0
VERTEX
  8
LL_3480
 62
     1
 10
552529
 20
3242221
  0
VERTEX
  8
LL_3480
 62
     1
 10
552905
 20
3242250
  0
SEQEND
  0
POLYLINE
  8
LL_3480
  6
CONTINUOUS
 62
     1
 66
     1
  0
VERTEX
  8
LL_3480
 62
     1
 10
558017
 20
3242274
  0
VERTEX
  8
LL_3480
 62
     1
 10
558395
 20
3242223
  0
VERTEX
  8
LL_3480
 62
     1
 10
559739
 20
3242694
  0
VERTEX
  8
LL_3480
 62
     1
 10
560096
 20
3242826
  0
VERTEX
  8
LL_3480
 62
     1
 10
560159
 20
3242870
  0
SEQEND
  0
POLYLINE
  8
LL_3480
  6
CONTINUOUS
 62
     1
 66
     1
  0
VERTEX
  8
LL_3480
 62
     1
 10
558070
 20
3240860
  0
VERTEX
  8
LL_3480
 62
     1
 10
558308
 20
3241817
  0
VERTEX
  8
LL_3480
 62
     1
 10
559301
 20
3241935
  0
VERTEX
  8
LL_3480
 62
     1
 10
559415
 20
3241995
  0
SEQEND
  0
POLYLINE
  8
LL_3480
  6
CONTINUOUS
 62
     1
 66
     1
  0
VERTEX
  8
LL_3480
 62
     1
 10
559107
 20
3250009
  0
VERTEX
  8
LL_3480
 62
     1
 10
559410
 20
3249956
  0
VERTEX
  8
LL_3480
 62
     1
 10
559770
 20
3249904
  0
VERTEX
  8
LL_3480
 62
     1
 10
559825
 20
3249899
  0
VERTEX
  8
LL_3480
 62
     1
 10
559803
 20
3249658
  0
SEQEND
  0
POLYLINE
  8
LL_3480
  6
CONTINUOUS
 62
     1
 66
     1
  0
VERTEX
  8
LL_3480
 62
     1
 10
559107
 20
3250009
  0
VERTEX
  8
LL_3480
 62
     1
 10
559153
 20
3250432
  0
VERTEX
  8
LL_3480
 62
     1
 10
559180
 20
3250678
  0
VERTEX
  8
LL_3480
 62
     1
 10
559218
 20
3250747
  0
VERTEX
  8
LL_3480
 62
     1
 10
559104
 20
3250792
  0
VERTEX
  8
LL_3480
 62
     1
 10
559006
 20
3250934
  0
VERTEX
  8
LL_3480
 62
     1
 10
559024
 20
3250981
  0
SEQEND
  0
POLYLINE
  8
LL_3480
  6
CONTINUOUS
 62
     1
 66
     1
  0
VERTEX
  8
LL_3480
 62
     1
 10
558949
 20
3254013
  0
VERTEX
  8
LL_3480
 62
     1
 10
558952
 20
3253998
  0
VERTEX
  8
LL_3480
 62
     1
 10
558722
 20
3253766
  0
VERTEX
  8
LL_3480
 62
     1
 10
558749
 20
3253672
  0
SEQEND
  0
POLYLINE
  8
LL_3480
  6
CONTINUOUS
 62
     1
 66
     1
  0
VERTEX
  8
LL_3480
 62
     1
 10
558749
 20
3253672
  0
VERTEX
  8
LL_3480
 62
     1
 10
558788
 20
3253541
  0
SEQEND
  0
POLYLINE
  8
LL_3480
  6
CONTINUOUS
 62
     1
 66
     1
  0
VERTEX
  8
LL_3480
 62
     1
 10
558749
 20
3253672
  0
VERTEX
  8
LL_3480
 62
     1
 10
559462
 20
3253981
  0
SEQEND
  0
POLYLINE
  8
LL_3480
  6
CONTINUOUS
 62
     1
 66
     1
  0
VERTEX
  8
LL_3480
 62
     1
 10
558877
 20
3254367
  0
VERTEX
  8
LL_3480
 62
     1
 10
558904
 20
3254249
  0
VERTEX
  8
LL_3480
 62
     1
 10
558949
 20
3254013
  0
SEQEND
  0
POLYLINE
  8
LL_3480
  6
CONTINUOUS
 62
     1
 66
     1
  0
VERTEX
  8
LL_3480
 62
     1
 10
558892
 20
3254770
  0
VERTEX
  8
LL_3480
 62
     1
 10
558955
 20
3254654
  0
VERTEX
  8
LL_3480
 62
     1
 10
558973
 20
3254585
  0
VERTEX
  8
LL_3480
 62
     1
 10
559009
 20
3254393
  0
VERTEX
  8
LL_3480
 62
     1
 10
559423
 20
3254394
  0
SEQEND
  0
POLYLINE
  8
LL_3480
  6
CONTINUOUS
 62
     1
 66
     1
  0
VERTEX
  8
LL_3480
 62
     1
 10
559530
 20
3254166
  0
VERTEX
  8
LL_3480
 62
     1
 10
559207
 20
3254153
  0
VERTEX
  8
LL_3480
 62
     1
 10
559207
 20
3254128
  0
VERTEX
  8
LL_3480
 62
     1
 10
558949
 20
3254013
  0
SEQEND
  0
POLYLINE
  8
LL_3480
  6
CONTINUOUS
 62
     1
 66
     1
  0
VERTEX
  8
LL_3480
 62
     1
 10
558265
 20
3253863
  0
VERTEX
  8
LL_3480
 62
     1
 10
558280
 20
3253833
  0
VERTEX
  8
LL_3480
 62
     1
 10
558514
 20
3253914
  0
VERTEX
  8
LL_3480
 62
     1
 10
558690
 20
3253965
  0
SEQEND
  0
POLYLINE
  8
LL_3480
  6
CONTINUOUS
 62
     1
 66
     1
  0
VERTEX
  8
LL_3480
 62
     1
 10
558265
 20
3253863
  0
VERTEX
  8
LL_3480
 62
     1
 10
558247
 20
3253956
  0
VERTEX
  8
LL_3480
 62
     1
 10
558196
 20
3254190
  0
VERTEX
  8
LL_3480
 62
     1
 10
558136
 20
3254513
  0
VERTEX
  8
LL_3480
 62
     1
 10
558083
 20
3254777
  0
SEQEND
  0
POLYLINE
  8
LL_3480
  6
CONTINUOUS
 62
     1
 66
     1
  0
VERTEX
  8
LL_3480
 62
     1
 10
558308
 20
3255452
  0
VERTEX
  8
LL_3480
 62
     1
 10
558445
 20
3255472
  0
VERTEX
  8
LL_3480
 62
     1
 10
558538
 20
3255487
  0
VERTEX
  8
LL_3480
 62
     1
 10
558622
 20
3255493
  0
VERTEX
  8
LL_3480
 62
     1
 10
558676
 20
3255535
  0
VERTEX
  8
LL_3480
 62
     1
 10
558733
 20
3255571
  0
VERTEX
  8
LL_3480
 62
     1
 10
558785
 20
3255613
  0
SEQEND
  0
POLYLINE
  8
LL_3480
  6
CONTINUOUS
 62
     1
 66
     1
  0
VERTEX
  8
LL_3480
 62
     1
 10
559072
 20
3257690
  0
VERTEX
  8
LL_3480
 62
     1
 10
559173
 20
3257699
  0
VERTEX
  8
LL_3480
 62
     1
 10
559204
 20
3257606
  0
VERTEX
  8
LL_3480
 62
     1
 10
559228
 20
3257576
  0
SEQEND
  0
POLYLINE
  8
LL_3480
  6
CONTINUOUS
 62
     1
 66
     1
  0
VERTEX
  8
LL_3480
 62
     1
 10
559228
 20
3257576
  0
VERTEX
  8
LL_3480
 62
     1
 10
559345
 20
3257576
  0
VERTEX
  8
LL_3480
 62
     1
 10
559407
 20
3257573
  0
SEQEND
  0
POLYLINE
  8
LL_3480
  6
CONTINUOUS
 62
     1
 66
     1
  0
VERTEX
  8
LL_3480
 62
     1
 10
559407
 20
3257573
  0
VERTEX
  8
LL_3480
 62
     1
 10
559228
 20
3257447
  0
VERTEX
  8
LL_3480
 62
     1
 10
559063
 20
3257336
  0
VERTEX
  8
LL_3480
 62
     1
 10
559070
 20
3257265
  0
SEQEND
  0
POLYLINE
  8
LL_3480
  6
CONTINUOUS
 62
     1
 66
     1
  0
VERTEX
  8
LL_3480
 62
     1
 10
558211
 20
3257554
  0
VERTEX
  8
LL_3480
 62
     1
 10
558261
 20
3257591
  0
VERTEX
  8
LL_3480
 62
     1
 10
558216
 20
3257669
  0
VERTEX
  8
LL_3480
 62
     1
 10
558441
 20
3257705
  0
SEQEND
  0
POLYLINE
  8
LL_3480
  6
CONTINUOUS
 62
     1
 66
     1
  0
VERTEX
  8
LL_3480
 62
     1
 10
558441
 20
3257705
  0
VERTEX
  8
LL_3480
 62
     1
 10
558382
 20
3257785
  0
SEQEND
  0
POLYLINE
  8
LL_3480
  6
CONTINUOUS
 62
     1
 66
     1
  0
VERTEX
  8
LL_3480
 62
     1
 10
558441
 20
3257705
  0
VERTEX
  8
LL_3480
 62
     1
 10
558553
 20
3257544
  0
SEQEND
  0
POLYLINE
  8
LL_3480
  6
CONTINUOUS
 62
     1
 66
     1
  0
VERTEX
  8
LL_3480
 62
     1
 10
558553
 20
3257544
  0
VERTEX
  8
LL_3480
 62
     1
 10
558582
 20
3257501
  0
VERTEX
  8
LL_3480
 62
     1
 10
558662
 20
3257368
  0
SEQEND
  0
POLYLINE
  8
LL_3480
  6
CONTINUOUS
 62
     1
 66
     1
  0
VERTEX
  8
LL_3480
 62
     1
 10
558304
 20
3257198
  0
VERTEX
  8
LL_3480
 62
     1
 10
558285
 20
3257243
  0
VERTEX
  8
LL_3480
 62
     1
 10
558328
 20
3257309
  0
VERTEX
  8
LL_3480
 62
     1
 10
558291
 20
3257387
  0
VERTEX
  8
LL_3480
 62
     1
 10
558211
 20
3257554
  0
SEQEND
  0
POLYLINE
  8
LL_3480
  6
CONTINUOUS
 62
     1
 66
     1
  0
VERTEX
  8
LL_3480
 62
     1
 10
558553
 20
3257544
  0
VERTEX
  8
LL_3480
 62
     1
 10
558769
 20
3257651
  0
VERTEX
  8
LL_3480
 62
     1
 10
558856
 20
3257687
  0
VERTEX
  8
LL_3480
 62
     1
 10
559072
 20
3257690
  0
SEQEND
  0
POLYLINE
  8
LL_3480
  6
CONTINUOUS
 62
     1
 66
     1
  0
VERTEX
  8
LL_3480
 62
     1
 10
559072
 20
3257690
  0
VERTEX
  8
LL_3480
 62
     1
 10
559064
 20
3257893
  0
SEQEND
  0
POLYLINE
  8
LL_3480
  6
CONTINUOUS
 62
     1
 66
     1
  0
VERTEX
  8
LL_3480
 62
     1
 10
559228
 20
3257576
  0
VERTEX
  8
LL_3480
 62
     1
 10
559234
 20
3257552
  0
VERTEX
  8
LL_3480
 62
     1
 10
559123
 20
3257522
  0
VERTEX
  8
LL_3480
 62
     1
 10
558910
 20
3257456
  0
VERTEX
  8
LL_3480
 62
     1
 10
558801
 20
3257435
  0
VERTEX
  8
LL_3480
 62
     1
 10
558662
 20
3257368
  0
SEQEND
  0
POLYLINE
  8
LL_3480
  6
CONTINUOUS
 62
     1
 66
     1
  0
VERTEX
  8
LL_3480
 62
     1
 10
558304
 20
3257198
  0
VERTEX
  8
LL_3480
 62
     1
 10
558454
 20
3257285
  0
VERTEX
  8
LL_3480
 62
     1
 10
558564
 20
3257213
  0
VERTEX
  8
LL_3480
 62
     1
 10
558685
 20
3257171
  0
VERTEX
  8
LL_3480
 62
     1
 10
558761
 20
3257204
  0
VERTEX
  8
LL_3480
 62
     1
 10
558662
 20
3257368
  0
SEQEND
  0
POLYLINE
  8
LL_3480
  6
CONTINUOUS
 62
     1
 66
     1
  0
VERTEX
  8
LL_3480
 62
     1
 10
552981
 20
3250075
  0
VERTEX
  8
LL_3480
 62
     1
 10
552983
 20
3250004
  0
VERTEX
  8
LL_3480
 62
     1
 10
553032
 20
3249941
  0
SEQEND
  0
POLYLINE
  8
LL_3480
  6
CONTINUOUS
 62
     1
 66
     1
  0
VERTEX
  8
LL_3480
 62
     1
 10
553123
 20
3250187
  0
VERTEX
  8
LL_3480
 62
     1
 10
553205
 20
3250088
  0
SEQEND
  0
POLYLINE
  8
LL_3480
  6
CONTINUOUS
 62
     1
 66
     1
  0
VERTEX
  8
LL_3480
 62
     1
 10
551356
 20
3251274
  0
VERTEX
  8
LL_3480
 62
     1
 10
551452
 20
3251168
  0
VERTEX
  8
LL_3480
 62
     1
 10
551509
 20
3251109
  0
VERTEX
  8
LL_3480
 62
     1
 10
551602
 20
3250998
  0
VERTEX
  8
LL_3480
 62
     1
 10
551629
 20
3250965
  0
SEQEND
  0
POLYLINE
  8
LL_3480
  6
CONTINUOUS
 62
     1
 66
     1
  0
VERTEX
  8
LL_3480
 62
     1
 10
547961
 20
3240779
  0
VERTEX
  8
LL_3480
 62
     1
 10
548812
 20
3240922
  0
VERTEX
  8
LL_3480
 62
     1
 10
549050
 20
3240953
  0
SEQEND
  0
POLYLINE
  8
LL_3480
  6
CONTINUOUS
 62
     1
 66
     1
  0
VERTEX
  8
LL_3480
 62
     1
 10
556077
 20
3240783
  0
VERTEX
  8
LL_3480
 62
     1
 10
555934
 20
3240093
  0
SEQEND
  0
POLYLINE
  8
LL_3480
  6
CONTINUOUS
 62
     1
 66
     1
  0
VERTEX
  8
LL_3480
 62
     1
 10
558025
 20
3240482
  0
VERTEX
  8
LL_3480
 62
     1
 10
558068
 20
3240453
  0
VERTEX
  8
LL_3480
 62
     1
 10
557983
 20
3240063
  0
SEQEND
  0
POLYLINE
  8
LL_3480
  6
CONTINUOUS
 62
     1
 66
     1
  0
VERTEX
  8
LL_3480
 62
     1
 10
558056
 20
3240782
  0
VERTEX
  8
LL_3480
 62
     1
 10
559367
 20
3240468
  0
VERTEX
  8
LL_3480
 62
     1
 10
558890
 20
3238377
  0
VERTEX
  8
LL_3480
 62
     1
 10
558736
 20
3237641
  0
SEQEND
  0
POLYLINE
  8
LL_3480
  6
CONTINUOUS
 62
     1
 66
     1
  0
VERTEX
  8
LL_3480
 62
     1
 10
559380
 20
3240476
  0
VERTEX
  8
LL_3480
 62
     1
 10
561239
 20
3239994
  0
SEQEND
  0
POLYLINE
  8
LL_3480
  6
CONTINUOUS
 62
     1
 66
     1
  0
VERTEX
  8
LL_3480
 62
     1
 10
559844
 20
3255141
  0
VERTEX
  8
LL_3480
 62
     1
 10
559966
 20
3254873
  0
VERTEX
  8
LL_3480
 62
     1
 10
560053
 20
3254660
  0
SEQEND
  0
POLYLINE
  8
LL_3480
  6
CONTINUOUS
 62
     1
 66
     1
  0
VERTEX
  8
LL_3480
 62
     1
 10
560053
 20
3254660
  0
VERTEX
  8
LL_3480
 62
     1
 10
560277
 20
3254717
  0
SEQEND
  0
POLYLINE
  8
LL_3480
  6
CONTINUOUS
 62
     1
 66
     1
  0
VERTEX
  8
LL_3480
 62
     1
 10
559569
 20
3255011
  0
VERTEX
  8
LL_3480
 62
     1
 10
559633
 20
3254867
  0
VERTEX
  8
LL_3480
 62
     1
 10
559702
 20
3254656
  0
VERTEX
  8
LL_3480
 62
     1
 10
559753
 20
3254434
  0
VERTEX
  8
LL_3480
 62
     1
 10
559752
 20
3254372
  0
SEQEND
  0
POLYLINE
  8
LL_3480
  6
CONTINUOUS
 62
     1
 66
     1
  0
VERTEX
  8
LL_3480
 62
     1
 10
560053
 20
3254660
  0
VERTEX
  8
LL_3480
 62
     1
 10
560023
 20
3254647
  0
VERTEX
  8
LL_3480
 62
     1
 10
560083
 20
3254447
  0
VERTEX
  8
LL_3480
 62
     1
 10
559854
 20
3254393
  0
SEQEND
  0
POLYLINE
  8
LL_3480
  6
CONTINUOUS
 62
     1
 66
     1
  0
VERTEX
  8
LL_3480
 62
     1
 10
559407
 20
3257573
  0
VERTEX
  8
LL_3480
 62
     1
 10
559423
 20
3257537
  0
VERTEX
  8
LL_3480
 62
     1
 10
559528
 20
3257558
  0
VERTEX
  8
LL_3480
 62
     1
 10
559783
 20
3257534
  0
SEQEND
  0
POLYLINE
  8
LL_3480
  6
CONTINUOUS
 62
     1
 66
     1
  0
VERTEX
  8
LL_3480
 62
     1
 10
559783
 20
3257534
  0
VERTEX
  8
LL_3480
 62
     1
 10
559888
 20
3257546
  0
VERTEX
  8
LL_3480
 62
     1
 10
559975
 20
3257510
  0
SEQEND
  0
POLYLINE
  8
LL_3480
  6
CONTINUOUS
 62
     1
 66
     1
  0
VERTEX
  8
LL_3480
 62
     1
 10
559783
 20
3257534
  0
VERTEX
  8
LL_3480
 62
     1
 10
559714
 20
3257666
  0
VERTEX
  8
LL_3480
 62
     1
 10
559648
 20
3257771
  0
SEQEND
  0
POLYLINE
  8
LL_3480
  6
CONTINUOUS
 62
     1
 66
     1
  0
VERTEX
  8
LL_3480
 62
     1
 10
559648
 20
3257771
  0
VERTEX
  8
LL_3480
 62
     1
 10
559553
 20
3257942
  0
SEQEND
  0
POLYLINE
  8
LL_3480
  6
CONTINUOUS
 62
     1
 66
     1
  0
VERTEX
  8
LL_3480
 62
     1
 10
559648
 20
3257771
  0
VERTEX
  8
LL_3480
 62
     1
 10
559933
 20
3257837
  0
VERTEX
  8
LL_3480
 62
     1
 10
560125
 20
3257879
  0
VERTEX
  8
LL_3480
 62
     1
 10
560311
 20
3257920
  0
SEQEND
  0
POLYLINE
  8
LL_3480
  6
CONTINUOUS
 62
     1
 66
     1
  0
VERTEX
  8
LL_3480
 62
     1
 10
560311
 20
3257920
  0
VERTEX
  8
LL_3480
 62
     1
 10
560320
 20
3257845
  0
VERTEX
  8
LL_3480
 62
     1
 10
560347
 20
3257809
  0
SEQEND
  0
POLYLINE
  8
LL_3480
  6
CONTINUOUS
 62
     1
 66
     1
  0
VERTEX
  8
LL_3480
 62
     1
 10
560141
 20
3257080
  0
VERTEX
  8
LL_3480
 62
     1
 10
560068
 20
3257101
  0
VERTEX
  8
LL_3480
 62
     1
 10
559867
 20
3257189
  0
VERTEX
  8
LL_3480
 62
     1
 10
559831
 20
3257110
  0
VERTEX
  8
LL_3480
 62
     1
 10
559708
 20
3257148
  0
SEQEND
  0
POLYLINE
  8
LL_3480
  6
CONTINUOUS
 62
     1
 66
     1
  0
VERTEX
  8
LL_3480
 62
     1
 10
560311
 20
3257920
  0
VERTEX
  8
LL_3480
 62
     1
 10
560296
 20
3258086
  0
VERTEX
  8
LL_3480
 62
     1
 10
560356
 20
3258091
  0
VERTEX
  8
LL_3480
 62
     1
 10
560410
 20
3258097
  0
VERTEX
  8
LL_3480
 62
     1
 10
560467
 20
3258100
  0
VERTEX
  8
LL_3480
 62
     1
 10
560554
 20
3258064
  0
VERTEX
  8
LL_3480
 62
     1
 10
560629
 20
3258041
  0
SEQEND
  0
POLYLINE
  8
LL_3480
  6
CONTINUOUS
 62
     1
 66
     1
  0
VERTEX
  8
LL_3480
 62
     1
 10
547147
 20
3260635
  0
VERTEX
  8
LL_3480
 62
     1
 10
546991
 20
3260498
  0
VERTEX
  8
LL_3480
 62
     1
 10
546787
 20
3260309
  0
VERTEX
  8
LL_3480
 62
     1
 10
546634
 20
3260165
  0
VERTEX
  8
LL_3480
 62
     1
 10
546469
 20
3260021
  0
VERTEX
  8
LL_3480
 62
     1
 10
546310
 20
3259868
  0
VERTEX
  8
LL_3480
 62
     1
 10
546252
 20
3259853
  0
SEQEND
  0
POLYLINE
  8
LL_3480
  6
CONTINUOUS
 62
     1
 66
     1
  0
VERTEX
  8
LL_3480
 62
     1
 10
537672
 20
3240515
  0
VERTEX
  8
LL_3480
 62
     1
 10
537704
 20
3240523
  0
VERTEX
  8
LL_3480
 62
     1
 10
537749
 20
3240433
  0
VERTEX
  8
LL_3480
 62
     1
 10
537872
 20
3240493
  0
VERTEX
  8
LL_3480
 62
     1
 10
537986
 20
3240523
  0
VERTEX
  8
LL_3480
 62
     1
 10
537968
 20
3240562
  0
VERTEX
  8
LL_3480
 62
     1
 10
538134
 20
3240695
  0
SEQEND
  0
POLYLINE
  8
LL_3480
  6
CONTINUOUS
 62
     1
 66
     1
  0
VERTEX
  8
LL_3480
 62
     1
 10
538265
 20
3237983
  0
VERTEX
  8
LL_3480
 62
     1
 10
539027
 20
3238318
  0
VERTEX
  8
LL_3480
 62
     1
 10
539681
 20
3238591
  0
VERTEX
  8
LL_3480
 62
     1
 10
540296
 20
3238843
  0
VERTEX
  8
LL_3480
 62
     1
 10
541016
 20
3239155
  0
VERTEX
  8
LL_3480
 62
     1
 10
541613
 20
3239413
  0
VERTEX
  8
LL_3480
 62
     1
 10
541928
 20
3239533
  0
VERTEX
  8
LL_3480
 62
     1
 10
542633
 20
3239815
  0
VERTEX
  8
LL_3480
 62
     1
 10
542788
 20
3239878
  0
SEQEND
  0
POLYLINE
  8
LL_3480
  6
CONTINUOUS
 62
     1
 66
     1
  0
VERTEX
  8
LL_3480
 62
     1
 10
555934
 20
3240093
  0
VERTEX
  8
LL_3480
 62
     1
 10
557846
 20
3240099
  0
VERTEX
  8
LL_3480
 62
     1
 10
557858
 20
3239997
  0
VERTEX
  8
LL_3480
 62
     1
 10
557906
 20
3240009
  0
VERTEX
  8
LL_3480
 62
     1
 10
557983
 20
3240063
  0
SEQEND
  0
POLYLINE
  8
LL_3480
  6
CONTINUOUS
 62
     1
 66
     1
  0
VERTEX
  8
LL_3480
 62
     1
 10
555934
 20
3240093
  0
VERTEX
  8
LL_3480
 62
     1
 10
555842
 20
3239649
  0
VERTEX
  8
LL_3480
 62
     1
 10
555920
 20
3239547
  0
VERTEX
  8
LL_3480
 62
     1
 10
556000
 20
3239421
  0
SEQEND
  0
POLYLINE
  8
LL_3480
  6
CONTINUOUS
 62
     1
 66
     1
  0
VERTEX
  8
LL_3480
 62
     1
 10
557983
 20
3240063
  0
VERTEX
  8
LL_3480
 62
     1
 10
557911
 20
3239730
  0
SEQEND
  0
POLYLINE
  8
LL_3480
  6
CONTINUOUS
 62
     1
 66
     1
  0
VERTEX
  8
LL_3480
 62
     1
 10
557911
 20
3239730
  0
VERTEX
  8
LL_3480
 62
     1
 10
557764
 20
3239053
  0
SEQEND
  0
POLYLINE
  8
LL_3480
  6
CONTINUOUS
 62
     1
 66
     1
  0
VERTEX
  8
LL_3480
 62
     1
 10
556867
 20
3239410
  0
VERTEX
  8
LL_3480
 62
     1
 10
556970
 20
3239460
  0
VERTEX
  8
LL_3480
 62
     1
 10
557678
 20
3239661
  0
VERTEX
  8
LL_3480
 62
     1
 10
557911
 20
3239730
  0
SEQEND
  0
POLYLINE
  8
LL_3480
  6
CONTINUOUS
 62
     1
 66
     1
  0
VERTEX
  8
LL_3480
 62
     1
 10
561239
 20
3239994
  0
VERTEX
  8
LL_3480
 62
     1
 10
561337
 20
3240366
  0
SEQEND
  0
POLYLINE
  8
LL_3480
  6
CONTINUOUS
 62
     1
 66
     1
  0
VERTEX
  8
LL_3480
 62
     1
 10
561820
 20
3239666
  0
VERTEX
  8
LL_3480
 62
     1
 10
561629
 20
3239940
  0
VERTEX
  8
LL_3480
 62
     1
 10
561455
 20
3240183
  0
VERTEX
  8
LL_3480
 62
     1
 10
561337
 20
3240366
  0
SEQEND
  0
POLYLINE
  8
LL_3480
  6
CONTINUOUS
 62
     1
 66
     1
  0
VERTEX
  8
LL_3480
 62
     1
 10
561337
 20
3240366
  0
VERTEX
  8
LL_3480
 62
     1
 10
562262
 20
3240630
  0
VERTEX
  8
LL_3480
 62
     1
 10
562568
 20
3240789
  0
VERTEX
  8
LL_3480
 62
     1
 10
562961
 20
3240975
  0
VERTEX
  8
LL_3480
 62
     1
 10
563276
 20
3241105
  0
SEQEND
  0
POLYLINE
  8
LL_3480
  6
CONTINUOUS
 62
     1
 66
     1
  0
VERTEX
  8
LL_3480
 62
     1
 10
561239
 20
3239994
  0
VERTEX
  8
LL_3480
 62
     1
 10
561023
 20
3239151
  0
VERTEX
  8
LL_3480
 62
     1
 10
560885
 20
3238617
  0
VERTEX
  8
LL_3480
 62
     1
 10
560879
 20
3238557
  0
VERTEX
  8
LL_3480
 62
     1
 10
560870
 20
3238512
  0
VERTEX
  8
LL_3480
 62
     1
 10
560849
 20
3238482
  0
VERTEX
  8
LL_3480
 62
     1
 10
560758
 20
3238111
  0
SEQEND
  0
POLYLINE
  8
LL_3480
  6
CONTINUOUS
 62
     1
 66
     1
  0
VERTEX
  8
LL_3480
 62
     1
 10
561337
 20
3240366
  0
VERTEX
  8
LL_3480
 62
     1
 10
561341
 20
3240381
  0
VERTEX
  8
LL_3480
 62
     1
 10
561585
 20
3241093
  0
VERTEX
  8
LL_3480
 62
     1
 10
561722
 20
3241479
  0
VERTEX
  8
LL_3480
 62
     1
 10
561824
 20
3241773
  0
VERTEX
  8
LL_3480
 62
     1
 10
561935
 20
3242088
  0
VERTEX
  8
LL_3480
 62
     1
 10
562040
 20
3242381
  0
VERTEX
  8
LL_3480
 62
     1
 10
562202
 20
3242828
  0
VERTEX
  8
LL_3480
 62
     1
 10
562211
 20
3242859
  0
VERTEX
  8
LL_3480
 62
     1
 10
562259
 20
3243021
  0
VERTEX
  8
LL_3480
 62
     1
 10
562802
 20
3242355
  0
VERTEX
  8
LL_3480
 62
     1
 10
563321
 20
3241794
  0
VERTEX
  8
LL_3480
 62
     1
 10
563421
 20
3241680
  0
SEQEND
  0
POLYLINE
  8
LL_3480
  6
CONTINUOUS
 62
     1
 66
     1
  0
VERTEX
  8
LL_3480
 62
     1
 10
558004
 20
3254004
  0
VERTEX
  8
LL_3480
 62
     1
 10
558049
 20
3253902
  0
VERTEX
  8
LL_3480
 62
     1
 10
558022
 20
3253881
  0
VERTEX
  8
LL_3480
 62
     1
 10
558097
 20
3253875
  0
VERTEX
  8
LL_3480
 62
     1
 10
558265
 20
3253863
  0
SEQEND
  0
POLYLINE
  8
LL_3480
  6
CONTINUOUS
 62
     1
 66
     1
  0
VERTEX
  8
LL_3480
 62
     1
 10
558100
 20
3256611
  0
VERTEX
  8
LL_3480
 62
     1
 10
557980
 20
3256546
  0
VERTEX
  8
LL_3480
 62
     1
 10
557830
 20
3256486
  0
VERTEX
  8
LL_3480
 62
     1
 10
557632
 20
3256405
  0
VERTEX
  8
LL_3480
 62
     1
 10
557638
 20
3256378
  0
VERTEX
  8
LL_3480
 62
     1
 10
557503
 20
3256306
  0
VERTEX
  8
LL_3480
 62
     1
 10
557536
 20
3256228
  0
VERTEX
  8
LL_3480
 62
     1
 10
557608
 20
3256252
  0
VERTEX
  8
LL_3480
 62
     1
 10
557782
 20
3256249
  0
VERTEX
  8
LL_3480
 62
     1
 10
557866
 20
3256243
  0
VERTEX
  8
LL_3480
 62
     1
 10
557920
 20
3256264
  0
VERTEX
  8
LL_3480
 62
     1
 10
558058
 20
3256240
  0
VERTEX
  8
LL_3480
 62
     1
 10
558235
 20
3256261
  0
VERTEX
  8
LL_3480
 62
     1
 10
558319
 20
3256303
  0
VERTEX
  8
LL_3480
 62
     1
 10
558397
 20
3256339
  0
VERTEX
  8
LL_3480
 62
     1
 10
558490
 20
3256339
  0
VERTEX
  8
LL_3480
 62
     1
 10
558532
 20
3256351
  0
VERTEX
  8
LL_3480
 62
     1
 10
558514
 20
3256393
  0
VERTEX
  8
LL_3480
 62
     1
 10
558493
 20
3256426
  0
VERTEX
  8
LL_3480
 62
     1
 10
558490
 20
3256459
  0
VERTEX
  8
LL_3480
 62
     1
 10
558509
 20
3256497
  0
SEQEND
  0
POLYLINE
  8
LL_3480
  6
CONTINUOUS
 62
     1
 66
     1
  0
VERTEX
  8
LL_3480
 62
     1
 10
560629
 20
3258041
  0
VERTEX
  8
LL_3480
 62
     1
 10
560551
 20
3258341
  0
SEQEND
  0
POLYLINE
  8
LL_3480
  6
CONTINUOUS
 62
     1
 66
     1
  0
VERTEX
  8
LL_3480
 62
     1
 10
560629
 20
3258041
  0
VERTEX
  8
LL_3480
 62
     1
 10
560728
 20
3257993
  0
SEQEND
  0
POLYLINE
  8
LL_3480
  6
CONTINUOUS
 62
     1
 66
     1
  0
VERTEX
  8
LL_3480
 62
     1
 10
560728
 20
3257993
  0
VERTEX
  8
LL_3480
 62
     1
 10
560881
 20
3257920
  0
VERTEX
  8
LL_3480
 62
     1
 10
560939
 20
3257894
  0
SEQEND
  0
POLYLINE
  8
LL_3480
  6
CONTINUOUS
 62
     1
 66
     1
  0
VERTEX
  8
LL_3480
 62
     1
 10
560785
 20
3258443
  0
VERTEX
  8
LL_3480
 62
     1
 10
561079
 20
3258208
  0
VERTEX
  8
LL_3480
 62
     1
 10
561064
 20
3258185
  0
VERTEX
  8
LL_3480
 62
     1
 10
560983
 20
3258130
  0
VERTEX
  8
LL_3480
 62
     1
 10
560857
 20
3258053
  0
VERTEX
  8
LL_3480
 62
     1
 10
560728
 20
3257993
  0
SEQEND
  0
POLYLINE
  8
LL_3480
  6
CONTINUOUS
 62
     1
 66
     1
  0
VERTEX
  8
LL_3480
 62
     1
 10
561434
 20
3257979
  0
VERTEX
  8
LL_3480
 62
     1
 10
561664
 20
3258088
  0
VERTEX
  8
LL_3480
 62
     1
 10
561844
 20
3258163
  0
SEQEND
  0
POLYLINE
  8
LL_3480
  6
CONTINUOUS
 62
     1
 66
     1
  0
VERTEX
  8
LL_3480
 62
     1
 10
548078
 20
3261014
  0
VERTEX
  8
LL_3480
 62
     1
 10
548152
 20
3260847
  0
VERTEX
  8
LL_3480
 62
     1
 10
548245
 20
3260651
  0
VERTEX
  8
LL_3480
 62
     1
 10
548278
 20
3260579
  0
VERTEX
  8
LL_3480
 62
     1
 10
548323
 20
3260528
  0
VERTEX
  8
LL_3480
 62
     1
 10
548374
 20
3260453
  0
VERTEX
  8
LL_3480
 62
     1
 10
548407
 20
3260423
  0
SEQEND
  0
POLYLINE
  8
LL_3480
  6
CONTINUOUS
 62
     1
 66
     1
  0
VERTEX
  8
LL_3480
 62
     1
 10
544062
 20
3261279
  0
VERTEX
  8
LL_3480
 62
     1
 10
544087
 20
3261218
  0
VERTEX
  8
LL_3480
 62
     1
 10
543940
 20
3261149
  0
VERTEX
  8
LL_3480
 62
     1
 10
543901
 20
3261131
  0
VERTEX
  8
LL_3480
 62
     1
 10
544057
 20
3260933
  0
VERTEX
  8
LL_3480
 62
     1
 10
544279
 20
3260651
  0
VERTEX
  8
LL_3480
 62
     1
 10
544435
 20
3260579
  0
VERTEX
  8
LL_3480
 62
     1
 10
544582
 20
3260513
  0
VERTEX
  8
LL_3480
 62
     1
 10
544747
 20
3260456
  0
VERTEX
  8
LL_3480
 62
     1
 10
544885
 20
3260774
  0
VERTEX
  8
LL_3480
 62
     1
 10
545101
 20
3261167
  0
VERTEX
  8
LL_3480
 62
     1
 10
545317
 20
3261468
  0
VERTEX
  8
LL_3480
 62
     1
 10
545488
 20
3261681
  0
VERTEX
  8
LL_3480
 62
     1
 10
545706
 20
3261845
  0
SEQEND
  0
POLYLINE
  8
LL_3480
  6
CONTINUOUS
 62
     1
 66
     1
  0
VERTEX
  8
LL_3480
 62
     1
 10
536990
 20
3239435
  0
VERTEX
  8
LL_3480
 62
     1
 10
537131
 20
3239509
  0
VERTEX
  8
LL_3480
 62
     1
 10
537206
 20
3239383
  0
VERTEX
  8
LL_3480
 62
     1
 10
537311
 20
3239446
  0
VERTEX
  8
LL_3480
 62
     1
 10
537365
 20
3239449
  0
VERTEX
  8
LL_3480
 62
     1
 10
537437
 20
3239470
  0
VERTEX
  8
LL_3480
 62
     1
 10
537500
 20
3239509
  0
VERTEX
  8
LL_3480
 62
     1
 10
537533
 20
3239530
  0
VERTEX
  8
LL_3480
 62
     1
 10
537563
 20
3239548
  0
VERTEX
  8
LL_3480
 62
     1
 10
537584
 20
3239557
  0
VERTEX
  8
LL_3480
 62
     1
 10
537599
 20
3239581
  0
VERTEX
  8
LL_3480
 62
     1
 10
537566
 20
3239623
  0
VERTEX
  8
LL_3480
 62
     1
 10
537473
 20
3239740
  0
SEQEND
  0
POLYLINE
  8
LL_3480
  6
CONTINUOUS
 62
     1
 66
     1
  0
VERTEX
  8
LL_3480
 62
     1
 10
536312
 20
3238932
  0
VERTEX
  8
LL_3480
 62
     1
 10
536279
 20
3238906
  0
VERTEX
  8
LL_3480
 62
     1
 10
536300
 20
3238789
  0
VERTEX
  8
LL_3480
 62
     1
 10
536507
 20
3238543
  0
VERTEX
  8
LL_3480
 62
     1
 10
536624
 20
3238378
  0
VERTEX
  8
LL_3480
 62
     1
 10
536648
 20
3238588
  0
VERTEX
  8
LL_3480
 62
     1
 10
536722
 20
3238597
  0
SEQEND
  0
POLYLINE
  8
LL_3480
  6
CONTINUOUS
 62
     1
 66
     1
  0
VERTEX
  8
LL_3480
 62
     1
 10
537316
 20
3239149
  0
VERTEX
  8
LL_3480
 62
     1
 10
537350
 20
3239161
  0
VERTEX
  8
LL_3480
 62
     1
 10
537392
 20
3239215
  0
VERTEX
  8
LL_3480
 62
     1
 10
537527
 20
3239326
  0
VERTEX
  8
LL_3480
 62
     1
 10
537533
 20
3239365
  0
VERTEX
  8
LL_3480
 62
     1
 10
537772
 20
3239360
  0
SEQEND
  0
POLYLINE
  8
LL_3480
  6
CONTINUOUS
 62
     1
 66
     1
  0
VERTEX
  8
LL_3480
 62
     1
 10
562189
 20
3255247
  0
VERTEX
  8
LL_3480
 62
     1
 10
562252
 20
3255151
  0
VERTEX
  8
LL_3480
 62
     1
 10
562384
 20
3254923
  0
VERTEX
  8
LL_3480
 62
     1
 10
562441
 20
3254941
  0
VERTEX
  8
LL_3480
 62
     1
 10
562537
 20
3254974
  0
VERTEX
  8
LL_3480
 62
     1
 10
562575
 20
3254983
  0
SEQEND
  0
POLYLINE
  8
LL_3480
  6
CONTINUOUS
 62
     1
 66
     1
  0
VERTEX
  8
LL_3480
 62
     1
 10
562068
 20
3257722
  0
VERTEX
  8
LL_3480
 62
     1
 10
562318
 20
3257812
  0
VERTEX
  8
LL_3480
 62
     1
 10
562591
 20
3257920
  0
VERTEX
  8
LL_3480
 62
     1
 10
562591
 20
3257830
  0
VERTEX
  8
LL_3480
 62
     1
 10
562601
 20
3257740
  0
SEQEND
  0
POLYLINE
  8
LL_3480
  6
CONTINUOUS
 62
     1
 66
     1
  0
VERTEX
  8
LL_3480
 62
     1
 10
563254
 20
3257701
  0
VERTEX
  8
LL_3480
 62
     1
 10
563152
 20
3257662
  0
VERTEX
  8
LL_3480
 62
     1
 10
562945
 20
3257602
  0
VERTEX
  8
LL_3480
 62
     1
 10
562774
 20
3257545
  0
VERTEX
  8
LL_3480
 62
     1
 10
562651
 20
3257488
  0
VERTEX
  8
LL_3480
 62
     1
 10
562555
 20
3257463
  0
SEQEND
  0
POLYLINE
  8
LL_3480
  6
CONTINUOUS
 62
     1
 66
     1
  0
VERTEX
  8
LL_3480
 62
     1
 10
561844
 20
3258163
  0
VERTEX
  8
LL_3480
 62
     1
 10
561865
 20
3258094
  0
VERTEX
  8
LL_3480
 62
     1
 10
561814
 20
3258076
  0
VERTEX
  8
LL_3480
 62
     1
 10
561817
 20
3258028
  0
VERTEX
  8
LL_3480
 62
     1
 10
561850
 20
3257866
  0
VERTEX
  8
LL_3480
 62
     1
 10
561853
 20
3257776
  0
VERTEX
  8
LL_3480
 62
     1
 10
561874
 20
3257713
  0
VERTEX
  8
LL_3480
 62
     1
 10
561895
 20
3257614
  0
VERTEX
  8
LL_3480
 62
     1
 10
561904
 20
3257566
  0
VERTEX
  8
LL_3480
 62
     1
 10
561883
 20
3257566
  0
VERTEX
  8
LL_3480
 62
     1
 10
561850
 20
3257564
  0
SEQEND
  0
POLYLINE
  8
LL_3480
  6
CONTINUOUS
 62
     1
 66
     1
  0
VERTEX
  8
LL_3480
 62
     1
 10
561844
 20
3258163
  0
VERTEX
  8
LL_3480
 62
     1
 10
561810
 20
3258307
  0
SEQEND
  0
POLYLINE
  8
LL_3480
  6
CONTINUOUS
 62
     1
 66
     1
  0
VERTEX
  8
LL_3480
 62
     1
 10
562055
 20
3258689
  0
VERTEX
  8
LL_3480
 62
     1
 10
562249
 20
3258739
  0
VERTEX
  8
LL_3480
 62
     1
 10
562435
 20
3258787
  0
VERTEX
  8
LL_3480
 62
     1
 10
562519
 20
3258811
  0
VERTEX
  8
LL_3480
 62
     1
 10
562582
 20
3258850
  0
VERTEX
  8
LL_3480
 62
     1
 10
562621
 20
3258886
  0
VERTEX
  8
LL_3480
 62
     1
 10
562666
 20
3258898
  0
SEQEND
  0
POLYLINE
  8
LL_3480
  6
CONTINUOUS
 62
     1
 66
     1
  0
VERTEX
  8
LL_3480
 62
     1
 10
562747
 20
3258520
  0
VERTEX
  8
LL_3480
 62
     1
 10
562804
 20
3258490
  0
VERTEX
  8
LL_3480
 62
     1
 10
562840
 20
3258490
  0
VERTEX
  8
LL_3480
 62
     1
 10
562894
 20
3258505
  0
VERTEX
  8
LL_3480
 62
     1
 10
563032
 20
3258538
  0
VERTEX
  8
LL_3480
 62
     1
 10
563092
 20
3258559
  0
VERTEX
  8
LL_3480
 62
     1
 10
563115
 20
3258564
  0
SEQEND
  0
POLYLINE
  8
LL_3480
  6
CONTINUOUS
 62
     1
 66
     1
  0
VERTEX
  8
LL_3480
 62
     1
 10
563110
 20
3258257
  0
VERTEX
  8
LL_3480
 62
     1
 10
563020
 20
3258262
  0
VERTEX
  8
LL_3480
 62
     1
 10
562942
 20
3258253
  0
VERTEX
  8
LL_3480
 62
     1
 10
562873
 20
3258241
  0
VERTEX
  8
LL_3480
 62
     1
 10
562753
 20
3258224
  0
VERTEX
  8
LL_3480
 62
     1
 10
562711
 20
3258211
  0
VERTEX
  8
LL_3480
 62
     1
 10
562630
 20
3258193
  0
VERTEX
  8
LL_3480
 62
     1
 10
562588
 20
3258187
  0
VERTEX
  8
LL_3480
 62
     1
 10
562579
 20
3258202
  0
VERTEX
  8
LL_3480
 62
     1
 10
562579
 20
3258247
  0
VERTEX
  8
LL_3480
 62
     1
 10
562555
 20
3258262
  0
VERTEX
  8
LL_3480
 62
     1
 10
562531
 20
3258260
  0
VERTEX
  8
LL_3480
 62
     1
 10
562477
 20
3258244
  0
VERTEX
  8
LL_3480
 62
     1
 10
562276
 20
3258154
  0
VERTEX
  8
LL_3480
 62
     1
 10
562198
 20
3258124
  0
VERTEX
  8
LL_3480
 62
     1
 10
562046
 20
3258098
  0
SEQEND
  0
POLYLINE
  8
LL_3480
  6
CONTINUOUS
 62
     1
 66
     1
  0
VERTEX
  8
LL_3480
 62
     1
 10
562666
 20
3258898
  0
VERTEX
  8
LL_3480
 62
     1
 10
562705
 20
3258784
  0
VERTEX
  8
LL_3480
 62
     1
 10
562717
 20
3258700
  0
VERTEX
  8
LL_3480
 62
     1
 10
562747
 20
3258520
  0
SEQEND
  0
POLYLINE
  8
LL_3480
  6
CONTINUOUS
 62
     1
 66
     1
  0
VERTEX
  8
LL_3480
 62
     1
 10
562747
 20
3258520
  0
VERTEX
  8
LL_3480
 62
     1
 10
562645
 20
3258511
  0
VERTEX
  8
LL_3480
 62
     1
 10
562582
 20
3258526
  0
VERTEX
  8
LL_3480
 62
     1
 10
562555
 20
3258538
  0
VERTEX
  8
LL_3480
 62
     1
 10
562534
 20
3258537
  0
SEQEND
  0
POLYLINE
  8
LL_3480
  6
CONTINUOUS
 62
     1
 66
     1
  0
VERTEX
  8
LL_3480
 62
     1
 10
562666
 20
3258898
  0
VERTEX
  8
LL_3480
 62
     1
 10
562606
 20
3259120
  0
VERTEX
  8
LL_3480
 62
     1
 10
562738
 20
3259162
  0
VERTEX
  8
LL_3480
 62
     1
 10
562786
 20
3259183
  0
VERTEX
  8
LL_3480
 62
     1
 10
562849
 20
3259177
  0
SEQEND
  0
POLYLINE
  8
LL_3480
  6
CONTINUOUS
 62
     1
 66
     1
  0
VERTEX
  8
LL_3480
 62
     1
 10
549957
 20
3261816
  0
VERTEX
  8
LL_3480
 62
     1
 10
549898
 20
3261780
  0
VERTEX
  8
LL_3480
 62
     1
 10
549694
 20
3261642
  0
VERTEX
  8
LL_3480
 62
     1
 10
549484
 20
3261515
  0
VERTEX
  8
LL_3480
 62
     1
 10
549460
 20
3261627
  0
VERTEX
  8
LL_3480
 62
     1
 10
549415
 20
3261821
  0
VERTEX
  8
LL_3480
 62
     1
 10
549382
 20
3261864
  0
VERTEX
  8
LL_3480
 62
     1
 10
549355
 20
3261870
  0
VERTEX
  8
LL_3480
 62
     1
 10
549343
 20
3261846
  0
VERTEX
  8
LL_3480
 62
     1
 10
549343
 20
3261815
  0
VERTEX
  8
LL_3480
 62
     1
 10
549335
 20
3261795
  0
SEQEND
  0
POLYLINE
  8
LL_3480
  6
CONTINUOUS
 62
     1
 66
     1
  0
VERTEX
  8
LL_3480
 62
     1
 10
547557
 20
3262533
  0
VERTEX
  8
LL_3480
 62
     1
 10
547519
 20
3262487
  0
VERTEX
  8
LL_3480
 62
     1
 10
547540
 20
3262317
  0
VERTEX
  8
LL_3480
 62
     1
 10
547567
 20
3262106
  0
VERTEX
  8
LL_3480
 62
     1
 10
547546
 20
3262053
  0
VERTEX
  8
LL_3480
 62
     1
 10
547514
 20
3261990
  0
VERTEX
  8
LL_3480
 62
     1
 10
547531
 20
3261890
  0
VERTEX
  8
LL_3480
 62
     1
 10
547609
 20
3261746
  0
VERTEX
  8
LL_3480
 62
     1
 10
547642
 20
3261656
  0
VERTEX
  8
LL_3480
 62
     1
 10
547654
 20
3261627
  0
VERTEX
  8
LL_3480
 62
     1
 10
547636
 20
3261609
  0
VERTEX
  8
LL_3480
 62
     1
 10
547627
 20
3261603
  0
VERTEX
  8
LL_3480
 62
     1
 10
547630
 20
3261558
  0
VERTEX
  8
LL_3480
 62
     1
 10
547648
 20
3261534
  0
VERTEX
  8
LL_3480
 62
     1
 10
547681
 20
3261528
  0
VERTEX
  8
LL_3480
 62
     1
 10
547723
 20
3261486
  0
VERTEX
  8
LL_3480
 62
     1
 10
547756
 20
3261429
  0
VERTEX
  8
LL_3480
 62
     1
 10
547804
 20
3261348
  0
VERTEX
  8
LL_3480
 62
     1
 10
547823
 20
3261299
  0
SEQEND
  0
POLYLINE
  8
LL_3480
  6
CONTINUOUS
 62
     1
 66
     1
  0
VERTEX
  8
LL_3480
 62
     1
 10
545775
 20
3261976
  0
VERTEX
  8
LL_3480
 62
     1
 10
545830
 20
3262074
  0
VERTEX
  8
LL_3480
 62
     1
 10
545863
 20
3262112
  0
VERTEX
  8
LL_3480
 62
     1
 10
546094
 20
3261887
  0
VERTEX
  8
LL_3480
 62
     1
 10
546339
 20
3261622
  0
SEQEND
  0
POLYLINE
  8
LL_3480
  6
CONTINUOUS
 62
     1
 66
     1
  0
VERTEX
  8
LL_3480
 62
     1
 10
546440
 20
3261177
  0
VERTEX
  8
LL_3480
 62
     1
 10
546436
 20
3261284
  0
VERTEX
  8
LL_3480
 62
     1
 10
546412
 20
3261380
  0
VERTEX
  8
LL_3480
 62
     1
 10
546406
 20
3261452
  0
VERTEX
  8
LL_3480
 62
     1
 10
546436
 20
3261488
  0
VERTEX
  8
LL_3480
 62
     1
 10
546469
 20
3261488
  0
VERTEX
  8
LL_3480
 62
     1
 10
546742
 20
3261174
  0
VERTEX
  8
LL_3480
 62
     1
 10
546942
 20
3260935
  0
SEQEND
  0
POLYLINE
  8
LL_3480
  6
CONTINUOUS
 62
     1
 66
     1
  0
VERTEX
  8
LL_3480
 62
     1
 10
535567
 20
3238710
  0
VERTEX
  8
LL_3480
 62
     1
 10
535664
 20
3238567
  0
VERTEX
  8
LL_3480
 62
     1
 10
535826
 20
3238645
  0
VERTEX
  8
LL_3480
 62
     1
 10
535919
 20
3238488
  0
SEQEND
  0
POLYLINE
  8
LL_3480
  6
CONTINUOUS
 62
     1
 66
     1
  0
VERTEX
  8
LL_3480
 62
     1
 10
535447
 20
3237487
  0
VERTEX
  8
LL_3480
 62
     1
 10
535664
 20
3237697
  0
VERTEX
  8
LL_3480
 62
     1
 10
536006
 20
3237460
  0
VERTEX
  8
LL_3480
 62
     1
 10
535724
 20
3237214
  0
VERTEX
  8
LL_3480
 62
     1
 10
535533
 20
3237056
  0
SEQEND
  0
POLYLINE
  8
LL_3480
  6
CONTINUOUS
 62
     1
 66
     1
  0
VERTEX
  8
LL_3480
 62
     1
 10
535995
 20
3237777
  0
VERTEX
  8
LL_3480
 62
     1
 10
535540
 20
3238066
  0
SEQEND
  0
POLYLINE
  8
LL_3480
  6
CONTINUOUS
 62
     1
 66
     1
  0
VERTEX
  8
LL_3480
 62
     1
 10
535888
 20
3238265
  0
VERTEX
  8
LL_3480
 62
     1
 10
536113
 20
3237919
  0
VERTEX
  8
LL_3480
 62
     1
 10
536291
 20
3238093
  0
VERTEX
  8
LL_3480
 62
     1
 10
536074
 20
3238389
  0
SEQEND
  0
POLYLINE
  8
LL_3480
  6
CONTINUOUS
 62
     1
 66
     1
  0
VERTEX
  8
LL_3480
 62
     1
 10
547633
 20
3235903
  0
VERTEX
  8
LL_3480
 62
     1
 10
548287
 20
3236053
  0
VERTEX
  8
LL_3480
 62
     1
 10
548596
 20
3236122
  0
VERTEX
  8
LL_3480
 62
     1
 10
548665
 20
3236152
  0
VERTEX
  8
LL_3480
 62
     1
 10
548710
 20
3236206
  0
VERTEX
  8
LL_3480
 62
     1
 10
549040
 20
3236809
  0
VERTEX
  8
LL_3480
 62
     1
 10
549229
 20
3237147
  0
VERTEX
  8
LL_3480
 62
     1
 10
549256
 20
3237217
  0
VERTEX
  8
LL_3480
 62
     1
 10
549331
 20
3237481
  0
VERTEX
  8
LL_3480
 62
     1
 10
549484
 20
3238067
  0
SEQEND
  0
POLYLINE
  8
LL_3480
  6
CONTINUOUS
 62
     1
 66
     1
  0
VERTEX
  8
LL_3480
 62
     1
 10
555562
 20
3238232
  0
VERTEX
  8
LL_3480
 62
     1
 10
555368
 20
3237311
  0
VERTEX
  8
LL_3480
 62
     1
 10
555179
 20
3236337
  0
VERTEX
  8
LL_3480
 62
     1
 10
555128
 20
3236070
  0
SEQEND
  0
POLYLINE
  8
LL_3480
  6
CONTINUOUS
 62
     1
 66
     1
  0
VERTEX
  8
LL_3480
 62
     1
 10
560768
 20
3238108
  0
VERTEX
  8
LL_3480
 62
     1
 10
560163
 20
3235843
  0
SEQEND
  0
POLYLINE
  8
LL_3480
  6
CONTINUOUS
 62
     1
 66
     1
  0
VERTEX
  8
LL_3480
 62
     1
 10
564721
 20
3245834
  0
VERTEX
  8
LL_3480
 62
     1
 10
563687
 20
3245874
  0
VERTEX
  8
LL_3480
 62
     1
 10
563675
 20
3245844
  0
VERTEX
  8
LL_3480
 62
     1
 10
563810
 20
3244701
  0
VERTEX
  8
LL_3480
 62
     1
 10
563837
 20
3244485
  0
VERTEX
  8
LL_3480
 62
     1
 10
563864
 20
3244311
  0
VERTEX
  8
LL_3480
 62
     1
 10
563891
 20
3244023
  0
VERTEX
  8
LL_3480
 62
     1
 10
563901
 20
3243948
  0
SEQEND
  0
POLYLINE
  8
LL_3480
  6
CONTINUOUS
 62
     1
 66
     1
  0
VERTEX
  8
LL_3480
 62
     1
 10
563416
 20
3248028
  0
VERTEX
  8
LL_3480
 62
     1
 10
563465
 20
3247581
  0
VERTEX
  8
LL_3480
 62
     1
 10
563508
 20
3247268
  0
SEQEND
  0
POLYLINE
  8
LL_3480
  6
CONTINUOUS
 62
     1
 66
     1
  0
VERTEX
  8
LL_3480
 62
     1
 10
563847
 20
3248814
  0
VERTEX
  8
LL_3480
 62
     1
 10
563624
 20
3248850
  0
VERTEX
  8
LL_3480
 62
     1
 10
563129
 20
3248910
  0
VERTEX
  8
LL_3480
 62
     1
 10
563057
 20
3248298
  0
VERTEX
  8
LL_3480
 62
     1
 10
563395
 20
3248043
  0
VERTEX
  8
LL_3480
 62
     1
 10
563720
 20
3248337
  0
VERTEX
  8
LL_3480
 62
     1
 10
564194
 20
3248811
  0
VERTEX
  8
LL_3480
 62
     1
 10
564470
 20
3249051
  0
VERTEX
  8
LL_3480
 62
     1
 10
564701
 20
3249242
  0
SEQEND
  0
POLYLINE
  8
LL_3480
  6
CONTINUOUS
 62
     1
 66
     1
  0
VERTEX
  8
LL_3480
 62
     1
 10
563183
 20
3252878
  0
VERTEX
  8
LL_3480
 62
     1
 10
563293
 20
3252919
  0
VERTEX
  8
LL_3480
 62
     1
 10
563458
 20
3252883
  0
VERTEX
  8
LL_3480
 62
     1
 10
563397
 20
3252680
  0
SEQEND
  0
POLYLINE
  8
LL_3480
  6
CONTINUOUS
 62
     1
 66
     1
  0
VERTEX
  8
LL_3480
 62
     1
 10
563110
 20
3258257
  0
VERTEX
  8
LL_3480
 62
     1
 10
563113
 20
3258169
  0
VERTEX
  8
LL_3480
 62
     1
 10
563128
 20
3258091
  0
VERTEX
  8
LL_3480
 62
     1
 10
563197
 20
3257896
  0
VERTEX
  8
LL_3480
 62
     1
 10
563254
 20
3257734
  0
VERTEX
  8
LL_3480
 62
     1
 10
563254
 20
3257713
  0
SEQEND
  0
POLYLINE
  8
LL_3480
  6
CONTINUOUS
 62
     1
 66
     1
  0
VERTEX
  8
LL_3480
 62
     1
 10
563254
 20
3257713
  0
VERTEX
  8
LL_3480
 62
     1
 10
563254
 20
3257701
  0
SEQEND
  0
POLYLINE
  8
LL_3480
  6
CONTINUOUS
 62
     1
 66
     1
  0
VERTEX
  8
LL_3480
 62
     1
 10
563254
 20
3257701
  0
VERTEX
  8
LL_3480
 62
     1
 10
563305
 20
3257506
  0
VERTEX
  8
LL_3480
 62
     1
 10
563360
 20
3257324
  0
SEQEND
  0
POLYLINE
  8
LL_3480
  6
CONTINUOUS
 62
     1
 66
     1
  0
VERTEX
  8
LL_3480
 62
     1
 10
564151
 20
3257695
  0
VERTEX
  8
LL_3480
 62
     1
 10
563995
 20
3257704
  0
VERTEX
  8
LL_3480
 62
     1
 10
563950
 20
3257729
  0
VERTEX
  8
LL_3480
 62
     1
 10
563950
 20
3257518
  0
SEQEND
  0
POLYLINE
  8
LL_3480
  6
CONTINUOUS
 62
     1
 66
     1
  0
VERTEX
  8
LL_3480
 62
     1
 10
563950
 20
3257518
  0
VERTEX
  8
LL_3480
 62
     1
 10
563839
 20
3257507
  0
VERTEX
  8
LL_3480
 62
     1
 10
563764
 20
3257498
  0
SEQEND
  0
POLYLINE
  8
LL_3480
  6
CONTINUOUS
 62
     1
 66
     1
  0
VERTEX
  8
LL_3480
 62
     1
 10
563764
 20
3257498
  0
VERTEX
  8
LL_3480
 62
     1
 10
563790
 20
3257340
  0
SEQEND
  0
POLYLINE
  8
LL_3480
  6
CONTINUOUS
 62
     1
 66
     1
  0
VERTEX
  8
LL_3480
 62
     1
 10
563950
 20
3257518
  0
VERTEX
  8
LL_3480
 62
     1
 10
564184
 20
3257557
  0
VERTEX
  8
LL_3480
 62
     1
 10
564400
 20
3257582
  0
VERTEX
  8
LL_3480
 62
     1
 10
564502
 20
3257593
  0
VERTEX
  8
LL_3480
 62
     1
 10
564604
 20
3257602
  0
SEQEND
  0
POLYLINE
  8
LL_3480
  6
CONTINUOUS
 62
     1
 66
     1
  0
VERTEX
  8
LL_3480
 62
     1
 10
563254
 20
3257713
  0
VERTEX
  8
LL_3480
 62
     1
 10
563308
 20
3257731
  0
VERTEX
  8
LL_3480
 62
     1
 10
563407
 20
3257731
  0
VERTEX
  8
LL_3480
 62
     1
 10
563512
 20
3257696
  0
VERTEX
  8
LL_3480
 62
     1
 10
563560
 20
3257617
  0
VERTEX
  8
LL_3480
 62
     1
 10
563611
 20
3257569
  0
VERTEX
  8
LL_3480
 62
     1
 10
563764
 20
3257498
  0
SEQEND
  0
POLYLINE
  8
LL_3480
  6
CONTINUOUS
 62
     1
 66
     1
  0
VERTEX
  8
LL_3480
 62
     1
 10
563115
 20
3258564
  0
VERTEX
  8
LL_3480
 62
     1
 10
563284
 20
3258598
  0
VERTEX
  8
LL_3480
 62
     1
 10
563440
 20
3258631
  0
VERTEX
  8
LL_3480
 62
     1
 10
563566
 20
3258661
  0
SEQEND
  0
POLYLINE
  8
LL_3480
  6
CONTINUOUS
 62
     1
 66
     1
  0
VERTEX
  8
LL_3480
 62
     1
 10
563566
 20
3258661
  0
VERTEX
  8
LL_3480
 62
     1
 10
563725
 20
3258685
  0
VERTEX
  8
LL_3480
 62
     1
 10
563876
 20
3258695
  0
SEQEND
  0
POLYLINE
  8
LL_3480
  6
CONTINUOUS
 62
     1
 66
     1
  0
VERTEX
  8
LL_3480
 62
     1
 10
563115
 20
3258564
  0
VERTEX
  8
LL_3480
 62
     1
 10
563116
 20
3258502
  0
VERTEX
  8
LL_3480
 62
     1
 10
563113
 20
3258436
  0
VERTEX
  8
LL_3480
 62
     1
 10
563125
 20
3258352
  0
VERTEX
  8
LL_3480
 62
     1
 10
563110
 20
3258257
  0
SEQEND
  0
POLYLINE
  8
LL_3480
  6
CONTINUOUS
 62
     1
 66
     1
  0
VERTEX
  8
LL_3480
 62
     1
 10
563566
 20
3258661
  0
VERTEX
  8
LL_3480
 62
     1
 10
563581
 20
3258607
  0
VERTEX
  8
LL_3480
 62
     1
 10
563596
 20
3258487
  0
VERTEX
  8
LL_3480
 62
     1
 10
563665
 20
3258043
  0
VERTEX
  8
LL_3480
 62
     1
 10
563672
 20
3257994
  0
SEQEND
  0
POLYLINE
  8
LL_3480
  6
CONTINUOUS
 62
     1
 66
     1
  0
VERTEX
  8
LL_3480
 62
     1
 10
563934
 20
3258671
  0
VERTEX
  8
LL_3480
 62
     1
 10
563941
 20
3258379
  0
VERTEX
  8
LL_3480
 62
     1
 10
563948
 20
3258047
  0
SEQEND
  0
POLYLINE
  8
LL_3480
  6
CONTINUOUS
 62
     1
 66
     1
  0
VERTEX
  8
LL_3480
 62
     1
 10
549542
 20
3262416
  0
VERTEX
  8
LL_3480
 62
     1
 10
549154
 20
3262403
  0
VERTEX
  8
LL_3480
 62
     1
 10
549139
 20
3262328
  0
VERTEX
  8
LL_3480
 62
     1
 10
549130
 20
3262253
  0
VERTEX
  8
LL_3480
 62
     1
 10
549115
 20
3262185
  0
VERTEX
  8
LL_3480
 62
     1
 10
549136
 20
3262097
  0
VERTEX
  8
LL_3480
 62
     1
 10
549163
 20
3262025
  0
VERTEX
  8
LL_3480
 62
     1
 10
549185
 20
3261990
  0
SEQEND
  0
POLYLINE
  8
LL_3480
  6
CONTINUOUS
 62
     1
 66
     1
  0
VERTEX
  8
LL_3480
 62
     1
 10
545205
 20
3262714
  0
VERTEX
  8
LL_3480
 62
     1
 10
545038
 20
3262775
  0
VERTEX
  8
LL_3480
 62
     1
 10
544252
 20
3263115
  0
VERTEX
  8
LL_3480
 62
     1
 10
544082
 20
3263198
  0
SEQEND
  0
POLYLINE
  8
LL_3480
  6
CONTINUOUS
 62
     1
 66
     1
  0
VERTEX
  8
LL_3480
 62
     1
 10
534099
 20
3249397
  0
VERTEX
  8
LL_3480
 62
     1
 10
534205
 20
3249235
  0
VERTEX
  8
LL_3480
 62
     1
 10
534465
 20
3248616
  0
SEQEND
  0
POLYLINE
  8
LL_3480
  6
CONTINUOUS
 62
     1
 66
     1
  0
VERTEX
  8
LL_3480
 62
     1
 10
535432
 20
3237574
  0
VERTEX
  8
LL_3480
 62
     1
 10
535394
 20
3237607
  0
VERTEX
  8
LL_3480
 62
     1
 10
535217
 20
3237421
  0
VERTEX
  8
LL_3480
 62
     1
 10
535169
 20
3237369
  0
VERTEX
  8
LL_3480
 62
     1
 10
535115
 20
3237343
  0
SEQEND
  0
POLYLINE
  8
LL_3480
  6
CONTINUOUS
 62
     1
 66
     1
  0
VERTEX
  8
LL_3480
 62
     1
 10
534670
 20
3237718
  0
VERTEX
  8
LL_3480
 62
     1
 10
534704
 20
3237586
  0
VERTEX
  8
LL_3480
 62
     1
 10
534455
 20
3237517
  0
VERTEX
  8
LL_3480
 62
     1
 10
534485
 20
3237391
  0
SEQEND
  0
POLYLINE
  8
LL_3480
  6
CONTINUOUS
 62
     1
 66
     1
  0
VERTEX
  8
LL_3480
 62
     1
 10
534485
 20
3237391
  0
VERTEX
  8
LL_3480
 62
     1
 10
534740
 20
3237466
  0
VERTEX
  8
LL_3480
 62
     1
 10
534809
 20
3237411
  0
VERTEX
  8
LL_3480
 62
     1
 10
534977
 20
3237502
  0
VERTEX
  8
LL_3480
 62
     1
 10
534941
 20
3237673
  0
VERTEX
  8
LL_3480
 62
     1
 10
534971
 20
3237685
  0
VERTEX
  8
LL_3480
 62
     1
 10
535163
 20
3237739
  0
VERTEX
  8
LL_3480
 62
     1
 10
535377
 20
3237861
  0
SEQEND
  0
POLYLINE
  8
LL_3480
  6
CONTINUOUS
 62
     1
 66
     1
  0
VERTEX
  8
LL_3480
 62
     1
 10
533897
 20
3237181
  0
VERTEX
  8
LL_3480
 62
     1
 10
533924
 20
3237148
  0
VERTEX
  8
LL_3480
 62
     1
 10
533969
 20
3237019
  0
VERTEX
  8
LL_3480
 62
     1
 10
534164
 20
3237148
  0
VERTEX
  8
LL_3480
 62
     1
 10
534110
 20
3237265
  0
VERTEX
  8
LL_3480
 62
     1
 10
534167
 20
3237316
  0
VERTEX
  8
LL_3480
 62
     1
 10
534233
 20
3237193
  0
VERTEX
  8
LL_3480
 62
     1
 10
534323
 20
3237253
  0
VERTEX
  8
LL_3480
 62
     1
 10
534374
 20
3237010
  0
SEQEND
  0
POLYLINE
  8
LL_3480
  6
CONTINUOUS
 62
     1
 66
     1
  0
VERTEX
  8
LL_3480
 62
     1
 10
534374
 20
3237010
  0
VERTEX
  8
LL_3480
 62
     1
 10
534191
 20
3236863
  0
VERTEX
  8
LL_3480
 62
     1
 10
534154
 20
3236842
  0
SEQEND
  0
POLYLINE
  8
LL_3480
  6
CONTINUOUS
 62
     1
 66
     1
  0
VERTEX
  8
LL_3480
 62
     1
 10
534233
 20
3236472
  0
VERTEX
  8
LL_3480
 62
     1
 10
534652
 20
3236733.0001
  0
SEQEND
  0
POLYLINE
  8
LL_3480
  6
CONTINUOUS
 62
     1
 66
     1
  0
VERTEX
  8
LL_3480
 62
     1
 10
534652
 20
3236733.0001
  0
VERTEX
  8
LL_3480
 62
     1
 10
534869
 20
3236874
  0
VERTEX
  8
LL_3480
 62
     1
 10
535238
 20
3237128
  0
SEQEND
  0
POLYLINE
  8
LL_3480
  6
CONTINUOUS
 62
     1
 66
     1
  0
VERTEX
  8
LL_3480
 62
     1
 10
535115
 20
3237343
  0
VERTEX
  8
LL_3480
 62
     1
 10
535163
 20
3237259
  0
SEQEND
  0
POLYLINE
  8
LL_3480
  6
CONTINUOUS
 62
     1
 66
     1
  0
VERTEX
  8
LL_3480
 62
     1
 10
535163
 20
3237259
  0
VERTEX
  8
LL_3480
 62
     1
 10
535238
 20
3237128
  0
SEQEND
  0
POLYLINE
  8
LL_3480
  6
CONTINUOUS
 62
     1
 66
     1
  0
VERTEX
  8
LL_3480
 62
     1
 10
535238
 20
3237128
  0
VERTEX
  8
LL_3480
 62
     1
 10
535328
 20
3236972
  0
SEQEND
  0
POLYLINE
  8
LL_3480
  6
CONTINUOUS
 62
     1
 66
     1
  0
VERTEX
  8
LL_3480
 62
     1
 10
534485
 20
3237391
  0
VERTEX
  8
LL_3480
 62
     1
 10
534548
 20
3237142
  0
VERTEX
  8
LL_3480
 62
     1
 10
534734
 20
3237259
  0
VERTEX
  8
LL_3480
 62
     1
 10
534853
 20
3237284
  0
SEQEND
  0
POLYLINE
  8
LL_3480
  6
CONTINUOUS
 62
     1
 66
     1
  0
VERTEX
  8
LL_3480
 62
     1
 10
534853
 20
3237284
  0
VERTEX
  8
LL_3480
 62
     1
 10
535007
 20
3237316
  0
VERTEX
  8
LL_3480
 62
     1
 10
535115
 20
3237343
  0
SEQEND
  0
POLYLINE
  8
LL_3480
  6
CONTINUOUS
 62
     1
 66
     1
  0
VERTEX
  8
LL_3480
 62
     1
 10
534374
 20
3237010
  0
VERTEX
  8
LL_3480
 62
     1
 10
534488
 20
3236853
  0
VERTEX
  8
LL_3480
 62
     1
 10
534652
 20
3236733.0001
  0
SEQEND
  0
POLYLINE
  8
LL_3480
  6
CONTINUOUS
 62
     1
 66
     1
  0
VERTEX
  8
LL_3480
 62
     1
 10
534652
 20
3236733.0001
  0
VERTEX
  8
LL_3480
 62
     1
 10
534815
 20
3236613
  0
SEQEND
  0
POLYLINE
  8
LL_3480
  6
CONTINUOUS
 62
     1
 66
     1
  0
VERTEX
  8
LL_3480
 62
     1
 10
534815
 20
3236613
  0
VERTEX
  8
LL_3480
 62
     1
 10
534774
 20
3236575
  0
SEQEND
  0
POLYLINE
  8
LL_3480
  6
CONTINUOUS
 62
     1
 66
     1
  0
VERTEX
  8
LL_3480
 62
     1
 10
534815
 20
3236613
  0
VERTEX
  8
LL_3480
 62
     1
 10
534914
 20
3236664
  0
VERTEX
  8
LL_3480
 62
     1
 10
534965
 20
3236691.0001
  0
VERTEX
  8
LL_3480
 62
     1
 10
535013
 20
3236724.0001
  0
VERTEX
  8
LL_3480
 62
     1
 10
535049
 20
3236745.0001
  0
VERTEX
  8
LL_3480
 62
     1
 10
535118
 20
3236793
  0
VERTEX
  8
LL_3480
 62
     1
 10
535156
 20
3236809
  0
SEQEND
  0
POLYLINE
  8
LL_3480
  6
CONTINUOUS
 62
     1
 66
     1
  0
VERTEX
  8
LL_3480
 62
     1
 10
534233
 20
3236472
  0
VERTEX
  8
LL_3480
 62
     1
 10
534380
 20
3236334
  0
VERTEX
  8
LL_3480
 62
     1
 10
534602
 20
3236463
  0
VERTEX
  8
LL_3480
 62
     1
 10
534683
 20
3236388
  0
SEQEND
  0
POLYLINE
  8
LL_3480
  6
CONTINUOUS
 62
     1
 66
     1
  0
VERTEX
  8
LL_3480
 62
     1
 10
533929
 20
3236391
  0
VERTEX
  8
LL_3480
 62
     1
 10
533843
 20
3236478
  0
VERTEX
  8
LL_3480
 62
     1
 10
534086
 20
3236613
  0
VERTEX
  8
LL_3480
 62
     1
 10
534104
 20
3236601
  0
VERTEX
  8
LL_3480
 62
     1
 10
534298
 20
3236715.0001
  0
VERTEX
  8
LL_3480
 62
     1
 10
534239
 20
3236787
  0
VERTEX
  8
LL_3480
 62
     1
 10
534205
 20
3236814
  0
VERTEX
  8
LL_3480
 62
     1
 10
534154
 20
3236842
  0
SEQEND
  0
POLYLINE
  8
LL_3480
  6
CONTINUOUS
 62
     1
 66
     1
  0
VERTEX
  8
LL_3480
 62
     1
 10
534853
 20
3237284
  0
VERTEX
  8
LL_3480
 62
     1
 10
534926
 20
3237129
  0
VERTEX
  8
LL_3480
 62
     1
 10
535163
 20
3237259
  0
SEQEND
  0
POLYLINE
  8
LL_3480
  6
CONTINUOUS
 62
     1
 66
     1
  0
VERTEX
  8
LL_3480
 62
     1
 10
557416
 20
3236909
  0
VERTEX
  8
LL_3480
 62
     1
 10
557441
 20
3236883
  0
VERTEX
  8
LL_3480
 62
     1
 10
558407
 20
3236580
  0
VERTEX
  8
LL_3480
 62
     1
 10
558692
 20
3236487
  0
VERTEX
  8
LL_3480
 62
     1
 10
558699
 20
3236528
  0
SEQEND
  0
POLYLINE
  8
LL_3480
  6
CONTINUOUS
 62
     1
 66
     1
  0
VERTEX
  8
LL_3480
 62
     1
 10
557303
 20
3236953
  0
VERTEX
  8
LL_3480
 62
     1
 10
557062
 20
3235906
  0
VERTEX
  8
LL_3480
 62
     1
 10
557039
 20
3235827
  0
SEQEND
  0
POLYLINE
  8
LL_3480
  6
CONTINUOUS
 62
     1
 66
     1
  0
VERTEX
  8
LL_3480
 62
     1
 10
559121
 20
3236716.0001
  0
VERTEX
  8
LL_3480
 62
     1
 10
558914
 20
3235837
  0
SEQEND
  0
POLYLINE
  8
LL_3480
  6
CONTINUOUS
 62
     1
 66
     1
  0
VERTEX
  8
LL_3480
 62
     1
 10
564740
 20
3242463
  0
VERTEX
  8
LL_3480
 62
     1
 10
564045
 20
3241410
  0
VERTEX
  8
LL_3480
 62
     1
 10
564278
 20
3241446
  0
VERTEX
  8
LL_3480
 62
     1
 10
564745
 20
3241574
  0
SEQEND
  0
POLYLINE
  8
LL_3480
  6
CONTINUOUS
 62
     1
 66
     1
  0
VERTEX
  8
LL_3480
 62
     1
 10
564539
 20
3258324
  0
VERTEX
  8
LL_3480
 62
     1
 10
564448
 20
3258304
  0
VERTEX
  8
LL_3480
 62
     1
 10
564364
 20
3258251
  0
VERTEX
  8
LL_3480
 62
     1
 10
564292
 20
3258179
  0
VERTEX
  8
LL_3480
 62
     1
 10
564265
 20
3258127
  0
VERTEX
  8
LL_3480
 62
     1
 10
564199
 20
3258037
  0
VERTEX
  8
LL_3480
 62
     1
 10
564208
 20
3257998
  0
VERTEX
  8
LL_3480
 62
     1
 10
564202
 20
3257959
  0
VERTEX
  8
LL_3480
 62
     1
 10
564193
 20
3257899
  0
VERTEX
  8
LL_3480
 62
     1
 10
564184
 20
3257806
  0
VERTEX
  8
LL_3480
 62
     1
 10
564151
 20
3257695
  0
SEQEND
  0
POLYLINE
  8
LL_3480
  6
CONTINUOUS
 62
     1
 66
     1
  0
VERTEX
  8
LL_3480
 62
     1
 10
564151
 20
3257695
  0
VERTEX
  8
LL_3480
 62
     1
 10
564301
 20
3257671
  0
VERTEX
  8
LL_3480
 62
     1
 10
564433
 20
3257680
  0
VERTEX
  8
LL_3480
 62
     1
 10
564499
 20
3257701
  0
VERTEX
  8
LL_3480
 62
     1
 10
564532
 20
3257729
  0
VERTEX
  8
LL_3480
 62
     1
 10
564523
 20
3257990
  0
VERTEX
  8
LL_3480
 62
     1
 10
564565
 20
3257987
  0
VERTEX
  8
LL_3480
 62
     1
 10
564651
 20
3257990
  0
SEQEND
  0
POLYLINE
  8
LL_3480
  6
CONTINUOUS
 62
     1
 66
     1
  0
VERTEX
  8
LL_3480
 62
     1
 10
532916
 20
3241399
  0
VERTEX
  8
LL_3480
 62
     1
 10
533168
 20
3240991
  0
VERTEX
  8
LL_3480
 62
     1
 10
533168
 20
3240889
  0
VERTEX
  8
LL_3480
 62
     1
 10
533180
 20
3240859
  0
VERTEX
  8
LL_3480
 62
     1
 10
533186
 20
3240676
  0
VERTEX
  8
LL_3480
 62
     1
 10
533230
 20
3240574
  0
VERTEX
  8
LL_3480
 62
     1
 10
533239
 20
3240535
  0
VERTEX
  8
LL_3480
 62
     1
 10
533254.0001
 20
3240448
  0
VERTEX
  8
LL_3480
 62
     1
 10
532811
 20
3239996
  0
SEQEND
  0
POLYLINE
  8
LL_3480
  6
CONTINUOUS
 62
     1
 66
     1
  0
VERTEX
  8
LL_3480
 62
     1
 10
532811
 20
3239996
  0
VERTEX
  8
LL_3480
 62
     1
 10
532377
 20
3239554
  0
SEQEND
  0
POLYLINE
  8
LL_3480
  6
CONTINUOUS
 62
     1
 66
     1
  0
VERTEX
  8
LL_3480
 62
     1
 10
532810
 20
3239998
  0
VERTEX
  8
LL_3480
 62
     1
 10
532811
 20
3239996
  0
SEQEND
  0
POLYLINE
  8
LL_3480
  6
CONTINUOUS
 62
     1
 66
     1
  0
VERTEX
  8
LL_3480
 62
     1
 10
532811
 20
3239996
  0
VERTEX
  8
LL_3480
 62
     1
 10
533576
 20
3238927
  0
VERTEX
  8
LL_3480
 62
     1
 10
534117
 20
3238150
  0
SEQEND
  0
POLYLINE
  8
LL_3480
  6
CONTINUOUS
 62
     1
 66
     1
  0
VERTEX
  8
LL_3480
 62
     1
 10
534154
 20
3236842
  0
VERTEX
  8
LL_3480
 62
     1
 10
534020
 20
3236767
  0
VERTEX
  8
LL_3480
 62
     1
 10
533861
 20
3236704.0001
  0
VERTEX
  8
LL_3480
 62
     1
 10
533780
 20
3236671.0001
  0
VERTEX
  8
LL_3480
 62
     1
 10
533684
 20
3236629
  0
VERTEX
  8
LL_3480
 62
     1
 10
533618
 20
3236599
  0
VERTEX
  8
LL_3480
 62
     1
 10
533603
 20
3236572
  0
VERTEX
  8
LL_3480
 62
     1
 10
533618
 20
3236551
  0
VERTEX
  8
LL_3480
 62
     1
 10
533714
 20
3236464
  0
VERTEX
  8
LL_3480
 62
     1
 10
533765
 20
3236371
  0
VERTEX
  8
LL_3480
 62
     1
 10
533783
 20
3236334
  0
SEQEND
  0
POLYLINE
  8
LL_3480
  6
CONTINUOUS
 62
     1
 66
     1
  0
VERTEX
  8
LL_3480
 62
     1
 10
533993
 20
3236336
  0
VERTEX
  8
LL_3480
 62
     1
 10
534233
 20
3236472
  0
SEQEND
  0
POLYLINE
  8
LL_3480
  6
CONTINUOUS
 62
     1
 66
     1
  0
VERTEX
  8
LL_3480
 62
     1
 10
534790
 20
3235737
  0
VERTEX
  8
LL_3480
 62
     1
 10
534754
 20
3235793
  0
SEQEND
  0
POLYLINE
  8
LL_3480
  6
CONTINUOUS
 62
     1
 66
     1
  0
VERTEX
  8
LL_3480
 62
     1
 10
535509
 20
3236233
  0
VERTEX
  8
LL_3480
 62
     1
 10
535583
 20
3236290
  0
VERTEX
  8
LL_3480
 62
     1
 10
535661
 20
3236370
  0
VERTEX
  8
LL_3480
 62
     1
 10
535700
 20
3236373
  0
VERTEX
  8
LL_3480
 62
     1
 10
535787
 20
3236298
  0
VERTEX
  8
LL_3480
 62
     1
 10
535898
 20
3236181
  0
VERTEX
  8
LL_3480
 62
     1
 10
536162
 20
3236335
  0
VERTEX
  8
LL_3480
 62
     1
 10
536216
 20
3236235
  0
VERTEX
  8
LL_3480
 62
     1
 10
536207
 20
3236167
  0
VERTEX
  8
LL_3480
 62
     1
 10
536198
 20
3236130
  0
VERTEX
  8
LL_3480
 62
     1
 10
536207
 20
3236085
  0
VERTEX
  8
LL_3480
 62
     1
 10
536219
 20
3236061
  0
VERTEX
  8
LL_3480
 62
     1
 10
536198
 20
3235929
  0
VERTEX
  8
LL_3480
 62
     1
 10
536183
 20
3235876
  0
VERTEX
  8
LL_3480
 62
     1
 10
536168
 20
3235849
  0
VERTEX
  8
LL_3480
 62
     1
 10
536105
 20
3235845
  0
VERTEX
  8
LL_3480
 62
     1
 10
536012
 20
3235851
  0
VERTEX
  8
LL_3480
 62
     1
 10
535967
 20
3235858
  0
VERTEX
  8
LL_3480
 62
     1
 10
535894
 20
3235902
  0
SEQEND
  0
POLYLINE
  8
LL_3480
  6
CONTINUOUS
 62
     1
 66
     1
  0
VERTEX
  8
LL_3480
 62
     1
 10
555128
 20
3236070
  0
VERTEX
  8
LL_3480
 62
     1
 10
553813
 20
3236328
  0
SEQEND
  0
POLYLINE
  8
LL_3480
  6
CONTINUOUS
 62
     1
 66
     1
  0
VERTEX
  8
LL_3480
 62
     1
 10
555128
 20
3236070
  0
VERTEX
  8
LL_3480
 62
     1
 10
556426
 20
3235824
  0
SEQEND
  0
POLYLINE
  8
LL_3480
  6
CONTINUOUS
 62
     1
 66
     1
  0
VERTEX
  8
LL_3480
 62
     1
 10
532370
 20
3242288
  0
VERTEX
  8
LL_3480
 62
     1
 10
532916
 20
3241399
  0
SEQEND
  0
POLYLINE
  8
LL_3480
  6
CONTINUOUS
 62
     1
 66
     1
  0
VERTEX
  8
LL_3480
 62
     1
 10
532916
 20
3241399
  0
VERTEX
  8
LL_3480
 62
     1
 10
532373
 20
3241030
  0
SEQEND
  0
POLYLINE
  8
LL_3480
  6
CONTINUOUS
 62
     1
 66
     1
  0
VERTEX
  8
LL_3480
 62
     1
 10
533325.0001
 20
3237041
  0
VERTEX
  8
LL_3480
 62
     1
 10
533246.0001
 20
3236983
  0
VERTEX
  8
LL_3480
 62
     1
 10
533354
 20
3236769
  0
VERTEX
  8
LL_3480
 62
     1
 10
533171
 20
3236640
  0
VERTEX
  8
LL_3480
 62
     1
 10
533090.25
 20
3236774.75
  0
SEQEND
  0
ENDSEC
  0
EOF
