  0
SECTION
  2
HEADER
  9
$EXTMIN
 10
532310
 20
3235730
  9
$EXTMAX
 10
564776
 20
3263568
  9
$CECOLOR
 62
     0
  9
$CELTYPE
  6
CONTINUOUS
  9
$TEXTSTYLE
  7
STANDARD
  0
ENDSEC
  0
SECTION
  2
TABLES
  0
TABLE
  2
LTYPE
 70
     1
  0
LTYPE
  2
CONTINUOUS
 70
    64
  3
Solid line
 72
    65
 73
     0
 40
0.0
  0
ENDTAB
  0
TABLE
  2
LAYER
 70
    3
  0
LAYER
  2
RA_6120
 70
   64
 62
56
  6
CONTINUOUS
  0
LAYER
  2
RA_6820
 70
   64
 62
59
  6
CONTINUOUS
  0
LAYER
  2
RA_6881
 70
   64
 62
62
  6
CONTINUOUS
  0
ENDTAB
  0
TABLE
  2
STYLE
 70
     0
  0
ENDTAB
  0
ENDSEC
  0
SECTION
  2
BLOCKS
  0
ENDSEC
  0
SECTION
  2
ENTITIES
  0
POLYLINE
  8
RA_6120
  6
CONTINUOUS
 62
    11
 66
     1
  0
VERTEX
  8
RA_6120
 62
    11
 10
556589
 20
3256958
  0
VERTEX
  8
RA_6120
 62
    11
 10
556556
 20
3256982
  0
SEQEND
  0
POLYLINE
  8
RA_6120
  6
CONTINUOUS
 62
    11
 66
     1
  0
VERTEX
  8
RA_6120
 62
    11
 10
550226
 20
3250573
  0
VERTEX
  8
RA_6120
 62
    11
 10
550250
 20
3250584
  0
VERTEX
  8
RA_6120
 62
    11
 10
550263
 20
3250600
  0
VERTEX
  8
RA_6120
 62
    11
 10
550272
 20
3250613
  0
VERTEX
  8
RA_6120
 62
    11
 10
550277
 20
3250630
  0
VERTEX
  8
RA_6120
 62
    11
 10
550288
 20
3250651
  0
VERTEX
  8
RA_6120
 62
    11
 10
550290
 20
3250678
  0
VERTEX
  8
RA_6120
 62
    11
 10
550287
 20
3250702
  0
VERTEX
  8
RA_6120
 62
    11
 10
550281
 20
3250721
  0
VERTEX
  8
RA_6120
 62
    11
 10
550273
 20
3250734
  0
VERTEX
  8
RA_6120
 62
    11
 10
550266
 20
3250752
  0
VERTEX
  8
RA_6120
 62
    11
 10
550268
 20
3250774
  0
VERTEX
  8
RA_6120
 62
    11
 10
550277
 20
3250790
  0
VERTEX
  8
RA_6120
 62
    11
 10
550304
 20
3250817
  0
VERTEX
  8
RA_6120
 62
    11
 10
550316
 20
3250832
  0
VERTEX
  8
RA_6120
 62
    11
 10
550322
 20
3250849
  0
VERTEX
  8
RA_6120
 62
    11
 10
550328
 20
3250872
  0
VERTEX
  8
RA_6120
 62
    11
 10
550340
 20
3250893
  0
VERTEX
  8
RA_6120
 62
    11
 10
550352
 20
3250925
  0
VERTEX
  8
RA_6120
 62
    11
 10
550366
 20
3250952
  0
VERTEX
  8
RA_6120
 62
    11
 10
550402
 20
3250998
  0
VERTEX
  8
RA_6120
 62
    11
 10
550422
 20
3251023
  0
VERTEX
  8
RA_6120
 62
    11
 10
550453
 20
3251062
  0
VERTEX
  8
RA_6120
 62
    11
 10
550473
 20
3251084
  0
VERTEX
  8
RA_6120
 62
    11
 10
550485
 20
3251106
  0
VERTEX
  8
RA_6120
 62
    11
 10
550506
 20
3251126
  0
VERTEX
  8
RA_6120
 62
    11
 10
550529
 20
3251141
  0
VERTEX
  8
RA_6120
 62
    11
 10
550560
 20
3251162
  0
VERTEX
  8
RA_6120
 62
    11
 10
550577
 20
3251177
  0
VERTEX
  8
RA_6120
 62
    11
 10
550597
 20
3251202
  0
VERTEX
  8
RA_6120
 62
    11
 10
550614
 20
3251228
  0
VERTEX
  8
RA_6120
 62
    11
 10
550641
 20
3251264
  0
VERTEX
  8
RA_6120
 62
    11
 10
550687
 20
3251326
  0
VERTEX
  8
RA_6120
 62
    11
 10
550718
 20
3251374
  0
VERTEX
  8
RA_6120
 62
    11
 10
550778
 20
3251439
  0
VERTEX
  8
RA_6120
 62
    11
 10
550791
 20
3251446
  0
VERTEX
  8
RA_6120
 62
    11
 10
550800
 20
3251440
  0
VERTEX
  8
RA_6120
 62
    11
 10
550816
 20
3251444
  0
VERTEX
  8
RA_6120
 62
    11
 10
550835
 20
3251460
  0
VERTEX
  8
RA_6120
 62
    11
 10
550862
 20
3251490
  0
VERTEX
  8
RA_6120
 62
    11
 10
550911
 20
3251540
  0
VERTEX
  8
RA_6120
 62
    11
 10
550940
 20
3251566
  0
VERTEX
  8
RA_6120
 62
    11
 10
550958
 20
3251584
  0
VERTEX
  8
RA_6120
 62
    11
 10
550984
 20
3251598
  0
VERTEX
  8
RA_6120
 62
    11
 10
551040
 20
3251610
  0
VERTEX
  8
RA_6120
 62
    11
 10
551070
 20
3251608
  0
VERTEX
  8
RA_6120
 62
    11
 10
551093
 20
3251602
  0
VERTEX
  8
RA_6120
 62
    11
 10
551102
 20
3251592
  0
VERTEX
  8
RA_6120
 62
    11
 10
551128
 20
3251577
  0
VERTEX
  8
RA_6120
 62
    11
 10
551145
 20
3251583
  0
VERTEX
  8
RA_6120
 62
    11
 10
551172
 20
3251613
  0
VERTEX
  8
RA_6120
 62
    11
 10
551192
 20
3251636
  0
VERTEX
  8
RA_6120
 62
    11
 10
551202
 20
3251654
  0
VERTEX
  8
RA_6120
 62
    11
 10
551199
 20
3251669
  0
VERTEX
  8
RA_6120
 62
    11
 10
551187
 20
3251683
  0
VERTEX
  8
RA_6120
 62
    11
 10
551178
 20
3251696
  0
VERTEX
  8
RA_6120
 62
    11
 10
551164
 20
3251716
  0
VERTEX
  8
RA_6120
 62
    11
 10
551171
 20
3251736
  0
VERTEX
  8
RA_6120
 62
    11
 10
551248
 20
3251816
  0
VERTEX
  8
RA_6120
 62
    11
 10
551298
 20
3251869
  0
VERTEX
  8
RA_6120
 62
    11
 10
551309
 20
3251885
  0
VERTEX
  8
RA_6120
 62
    11
 10
551311
 20
3251896
  0
VERTEX
  8
RA_6120
 62
    11
 10
551301
 20
3251910
  0
VERTEX
  8
RA_6120
 62
    11
 10
551292
 20
3251931
  0
VERTEX
  8
RA_6120
 62
    11
 10
551296
 20
3251949
  0
VERTEX
  8
RA_6120
 62
    11
 10
551311
 20
3251978
  0
VERTEX
  8
RA_6120
 62
    11
 10
551331
 20
3252012
  0
VERTEX
  8
RA_6120
 62
    11
 10
551348
 20
3252053
  0
VERTEX
  8
RA_6120
 62
    11
 10
551361
 20
3252074
  0
VERTEX
  8
RA_6120
 62
    11
 10
551370
 20
3252092
  0
VERTEX
  8
RA_6120
 62
    11
 10
551375
 20
3252114
  0
VERTEX
  8
RA_6120
 62
    11
 10
551400
 20
3252159
  0
VERTEX
  8
RA_6120
 62
    11
 10
551415
 20
3252176
  0
VERTEX
  8
RA_6120
 62
    11
 10
551462
 20
3252238
  0
VERTEX
  8
RA_6120
 62
    11
 10
551486
 20
3252265
  0
VERTEX
  8
RA_6120
 62
    11
 10
551509
 20
3252280
  0
VERTEX
  8
RA_6120
 62
    11
 10
551559
 20
3252286
  0
VERTEX
  8
RA_6120
 62
    11
 10
551611
 20
3252293
  0
VERTEX
  8
RA_6120
 62
    11
 10
551638
 20
3252294
  0
VERTEX
  8
RA_6120
 62
    11
 10
551647
 20
3252307
  0
VERTEX
  8
RA_6120
 62
    11
 10
551698
 20
3252369
  0
VERTEX
  8
RA_6120
 62
    11
 10
551724
 20
3252398
  0
VERTEX
  8
RA_6120
 62
    11
 10
551748
 20
3252413
  0
VERTEX
  8
RA_6120
 62
    11
 10
551767
 20
3252400
  0
VERTEX
  8
RA_6120
 62
    11
 10
551799
 20
3252336
  0
VERTEX
  8
RA_6120
 62
    11
 10
551810
 20
3252298
  0
VERTEX
  8
RA_6120
 62
    11
 10
551803
 20
3252268
  0
VERTEX
  8
RA_6120
 62
    11
 10
551795
 20
3252259
  0
VERTEX
  8
RA_6120
 62
    11
 10
551792
 20
3252240
  0
VERTEX
  8
RA_6120
 62
    11
 10
551812
 20
3252236
  0
VERTEX
  8
RA_6120
 62
    11
 10
551825
 20
3252240
  0
VERTEX
  8
RA_6120
 62
    11
 10
551834
 20
3252250
  0
VERTEX
  8
RA_6120
 62
    11
 10
551845
 20
3252259
  0
VERTEX
  8
RA_6120
 62
    11
 10
551859
 20
3252271
  0
VERTEX
  8
RA_6120
 62
    11
 10
551875
 20
3252284
  0
VERTEX
  8
RA_6120
 62
    11
 10
551899
 20
3252286
  0
VERTEX
  8
RA_6120
 62
    11
 10
551928
 20
3252272
  0
VERTEX
  8
RA_6120
 62
    11
 10
551943
 20
3252267
  0
VERTEX
  8
RA_6120
 62
    11
 10
551957
 20
3252251
  0
VERTEX
  8
RA_6120
 62
    11
 10
551951
 20
3252234
  0
VERTEX
  8
RA_6120
 62
    11
 10
551904
 20
3252178
  0
VERTEX
  8
RA_6120
 62
    11
 10
551894
 20
3252171
  0
VERTEX
  8
RA_6120
 62
    11
 10
551873
 20
3252159
  0
VERTEX
  8
RA_6120
 62
    11
 10
551860
 20
3252165
  0
VERTEX
  8
RA_6120
 62
    11
 10
551847
 20
3252176
  0
VERTEX
  8
RA_6120
 62
    11
 10
551832
 20
3252172
  0
VERTEX
  8
RA_6120
 62
    11
 10
551810
 20
3252147
  0
VERTEX
  8
RA_6120
 62
    11
 10
551786
 20
3252121
  0
VERTEX
  8
RA_6120
 62
    11
 10
551735
 20
3252090
  0
VERTEX
  8
RA_6120
 62
    11
 10
551716
 20
3252076
  0
VERTEX
  8
RA_6120
 62
    11
 10
551687
 20
3252063
  0
VERTEX
  8
RA_6120
 62
    11
 10
551644
 20
3252015
  0
VERTEX
  8
RA_6120
 62
    11
 10
551628
 20
3251992
  0
VERTEX
  8
RA_6120
 62
    11
 10
551636
 20
3251960
  0
VERTEX
  8
RA_6120
 62
    11
 10
551643
 20
3251931
  0
VERTEX
  8
RA_6120
 62
    11
 10
551647
 20
3251900
  0
VERTEX
  8
RA_6120
 62
    11
 10
551659
 20
3251901
  0
VERTEX
  8
RA_6120
 62
    11
 10
551685
 20
3251930
  0
VERTEX
  8
RA_6120
 62
    11
 10
551720
 20
3251969
  0
VERTEX
  8
RA_6120
 62
    11
 10
551751
 20
3252001
  0
VERTEX
  8
RA_6120
 62
    11
 10
551769
 20
3252021
  0
VERTEX
  8
RA_6120
 62
    11
 10
551803
 20
3252063
  0
VERTEX
  8
RA_6120
 62
    11
 10
551823
 20
3252076
  0
VERTEX
  8
RA_6120
 62
    11
 10
551840
 20
3252081
  0
VERTEX
  8
RA_6120
 62
    11
 10
551851
 20
3252075
  0
VERTEX
  8
RA_6120
 62
    11
 10
551909
 20
3252009
  0
VERTEX
  8
RA_6120
 62
    11
 10
551926
 20
3251990
  0
VERTEX
  8
RA_6120
 62
    11
 10
551950
 20
3251967
  0
VERTEX
  8
RA_6120
 62
    11
 10
551963
 20
3251963
  0
VERTEX
  8
RA_6120
 62
    11
 10
551975
 20
3251973
  0
VERTEX
  8
RA_6120
 62
    11
 10
551993
 20
3251994
  0
VERTEX
  8
RA_6120
 62
    11
 10
552024
 20
3252042
  0
VERTEX
  8
RA_6120
 62
    11
 10
552036
 20
3252058
  0
VERTEX
  8
RA_6120
 62
    11
 10
552037
 20
3252073
  0
VERTEX
  8
RA_6120
 62
    11
 10
552027
 20
3252088
  0
VERTEX
  8
RA_6120
 62
    11
 10
552015
 20
3252104
  0
VERTEX
  8
RA_6120
 62
    11
 10
552020
 20
3252125
  0
VERTEX
  8
RA_6120
 62
    11
 10
552058
 20
3252161
  0
VERTEX
  8
RA_6120
 62
    11
 10
552080
 20
3252184
  0
VERTEX
  8
RA_6120
 62
    11
 10
552105
 20
3252192
  0
VERTEX
  8
RA_6120
 62
    11
 10
552111
 20
3252199
  0
VERTEX
  8
RA_6120
 62
    11
 10
552102
 20
3252219
  0
VERTEX
  8
RA_6120
 62
    11
 10
552040
 20
3252265
  0
VERTEX
  8
RA_6120
 62
    11
 10
551958
 20
3252313
  0
VERTEX
  8
RA_6120
 62
    11
 10
551942
 20
3252326
  0
VERTEX
  8
RA_6120
 62
    11
 10
551940
 20
3252344
  0
VERTEX
  8
RA_6120
 62
    11
 10
551995
 20
3252396
  0
VERTEX
  8
RA_6120
 62
    11
 10
552006
 20
3252405
  0
VERTEX
  8
RA_6120
 62
    11
 10
552015
 20
3252421
  0
VERTEX
  8
RA_6120
 62
    11
 10
552011
 20
3252436
  0
VERTEX
  8
RA_6120
 62
    11
 10
551991
 20
3252481
  0
VERTEX
  8
RA_6120
 62
    11
 10
551967
 20
3252522
  0
VERTEX
  8
RA_6120
 62
    11
 10
551948
 20
3252558
  0
VERTEX
  8
RA_6120
 62
    11
 10
551938
 20
3252575
  0
VERTEX
  8
RA_6120
 62
    11
 10
551926
 20
3252592
  0
VERTEX
  8
RA_6120
 62
    11
 10
551926
 20
3252605
  0
VERTEX
  8
RA_6120
 62
    11
 10
551923
 20
3252619
  0
VERTEX
  8
RA_6120
 62
    11
 10
551910
 20
3252624
  0
VERTEX
  8
RA_6120
 62
    11
 10
551897
 20
3252632
  0
VERTEX
  8
RA_6120
 62
    11
 10
551891
 20
3252645
  0
VERTEX
  8
RA_6120
 62
    11
 10
551894
 20
3252672
  0
VERTEX
  8
RA_6120
 62
    11
 10
551901
 20
3252693
  0
VERTEX
  8
RA_6120
 62
    11
 10
551912
 20
3252712
  0
VERTEX
  8
RA_6120
 62
    11
 10
551924
 20
3252718
  0
VERTEX
  8
RA_6120
 62
    11
 10
551944
 20
3252716
  0
VERTEX
  8
RA_6120
 62
    11
 10
552032
 20
3252767
  0
VERTEX
  8
RA_6120
 62
    11
 10
552150
 20
3252833
  0
VERTEX
  8
RA_6120
 62
    11
 10
552212
 20
3252868
  0
VERTEX
  8
RA_6120
 62
    11
 10
552240
 20
3252891
  0
VERTEX
  8
RA_6120
 62
    11
 10
552259
 20
3252898
  0
VERTEX
  8
RA_6120
 62
    11
 10
552288
 20
3252897
  0
VERTEX
  8
RA_6120
 62
    11
 10
552309
 20
3252899
  0
VERTEX
  8
RA_6120
 62
    11
 10
552325
 20
3252906
  0
VERTEX
  8
RA_6120
 62
    11
 10
552356
 20
3252926
  0
VERTEX
  8
RA_6120
 62
    11
 10
552417
 20
3252962
  0
VERTEX
  8
RA_6120
 62
    11
 10
552448
 20
3252979
  0
VERTEX
  8
RA_6120
 62
    11
 10
552473
 20
3252993
  0
VERTEX
  8
RA_6120
 62
    11
 10
552522
 20
3253060
  0
VERTEX
  8
RA_6120
 62
    11
 10
552538
 20
3253089
  0
VERTEX
  8
RA_6120
 62
    11
 10
552577
 20
3253118
  0
VERTEX
  8
RA_6120
 62
    11
 10
552605
 20
3253125
  0
VERTEX
  8
RA_6120
 62
    11
 10
552638
 20
3253137
  0
VERTEX
  8
RA_6120
 62
    11
 10
552706
 20
3253141
  0
VERTEX
  8
RA_6120
 62
    11
 10
552760
 20
3253168
  0
VERTEX
  8
RA_6120
 62
    11
 10
552772
 20
3253191
  0
VERTEX
  8
RA_6120
 62
    11
 10
552781
 20
3253208
  0
VERTEX
  8
RA_6120
 62
    11
 10
552801
 20
3253216
  0
VERTEX
  8
RA_6120
 62
    11
 10
552824
 20
3253218
  0
VERTEX
  8
RA_6120
 62
    11
 10
552871
 20
3253225
  0
VERTEX
  8
RA_6120
 62
    11
 10
552891
 20
3253229
  0
VERTEX
  8
RA_6120
 62
    11
 10
552920
 20
3253239
  0
VERTEX
  8
RA_6120
 62
    11
 10
552948
 20
3253254
  0
VERTEX
  8
RA_6120
 62
    11
 10
553005
 20
3253271
  0
VERTEX
  8
RA_6120
 62
    11
 10
553034
 20
3253281
  0
VERTEX
  8
RA_6120
 62
    11
 10
553072
 20
3253293
  0
VERTEX
  8
RA_6120
 62
    11
 10
553102
 20
3253301
  0
VERTEX
  8
RA_6120
 62
    11
 10
553136
 20
3253307
  0
VERTEX
  8
RA_6120
 62
    11
 10
553154
 20
3253309
  0
VERTEX
  8
RA_6120
 62
    11
 10
553143
 20
3253276
  0
VERTEX
  8
RA_6120
 62
    11
 10
553117
 20
3253247
  0
VERTEX
  8
RA_6120
 62
    11
 10
553092
 20
3253213
  0
VERTEX
  8
RA_6120
 62
    11
 10
553054
 20
3253158
  0
VERTEX
  8
RA_6120
 62
    11
 10
553011
 20
3253099
  0
VERTEX
  8
RA_6120
 62
    11
 10
552958
 20
3253003
  0
VERTEX
  8
RA_6120
 62
    11
 10
552929
 20
3252903
  0
VERTEX
  8
RA_6120
 62
    11
 10
552913
 20
3252858
  0
VERTEX
  8
RA_6120
 62
    11
 10
552895
 20
3252838
  0
VERTEX
  8
RA_6120
 62
    11
 10
552884
 20
3252773
  0
VERTEX
  8
RA_6120
 62
    11
 10
552884
 20
3252747
  0
VERTEX
  8
RA_6120
 62
    11
 10
552902
 20
3252737
  0
VERTEX
  8
RA_6120
 62
    11
 10
552911
 20
3252733
  0
VERTEX
  8
RA_6120
 62
    11
 10
552930
 20
3252672
  0
VERTEX
  8
RA_6120
 62
    11
 10
552950
 20
3252568
  0
VERTEX
  8
RA_6120
 62
    11
 10
552971
 20
3252491
  0
VERTEX
  8
RA_6120
 62
    11
 10
552981
 20
3252457
  0
VERTEX
  8
RA_6120
 62
    11
 10
553005
 20
3252417
  0
VERTEX
  8
RA_6120
 62
    11
 10
553017
 20
3252376
  0
VERTEX
  8
RA_6120
 62
    11
 10
553002
 20
3252349
  0
VERTEX
  8
RA_6120
 62
    11
 10
552902
 20
3252134
  0
VERTEX
  8
RA_6120
 62
    11
 10
552883
 20
3252092
  0
VERTEX
  8
RA_6120
 62
    11
 10
552870
 20
3252030
  0
VERTEX
  8
RA_6120
 62
    11
 10
552860
 20
3252013
  0
VERTEX
  8
RA_6120
 62
    11
 10
552857
 20
3251975
  0
VERTEX
  8
RA_6120
 62
    11
 10
552833
 20
3251953
  0
VERTEX
  8
RA_6120
 62
    11
 10
552795
 20
3251944
  0
VERTEX
  8
RA_6120
 62
    11
 10
552766
 20
3251917
  0
VERTEX
  8
RA_6120
 62
    11
 10
552736
 20
3251886
  0
VERTEX
  8
RA_6120
 62
    11
 10
552700
 20
3251857
  0
VERTEX
  8
RA_6120
 62
    11
 10
552638
 20
3251790
  0
VERTEX
  8
RA_6120
 62
    11
 10
552616
 20
3251771
  0
VERTEX
  8
RA_6120
 62
    11
 10
552571
 20
3251736
  0
VERTEX
  8
RA_6120
 62
    11
 10
552350
 20
3251643
  0
VERTEX
  8
RA_6120
 62
    11
 10
552331
 20
3251635
  0
VERTEX
  8
RA_6120
 62
    11
 10
552307
 20
3251614
  0
VERTEX
  8
RA_6120
 62
    11
 10
552273
 20
3251566
  0
VERTEX
  8
RA_6120
 62
    11
 10
552249
 20
3251539
  0
VERTEX
  8
RA_6120
 62
    11
 10
552234
 20
3251514
  0
VERTEX
  8
RA_6120
 62
    11
 10
552212
 20
3251494
  0
VERTEX
  8
RA_6120
 62
    11
 10
552167
 20
3251456
  0
VERTEX
  8
RA_6120
 62
    11
 10
552128
 20
3251427
  0
VERTEX
  8
RA_6120
 62
    11
 10
552081
 20
3251366
  0
VERTEX
  8
RA_6120
 62
    11
 10
552050
 20
3251308
  0
VERTEX
  8
RA_6120
 62
    11
 10
552037
 20
3251279
  0
VERTEX
  8
RA_6120
 62
    11
 10
552016
 20
3251189
  0
VERTEX
  8
RA_6120
 62
    11
 10
552015
 20
3251152
  0
VERTEX
  8
RA_6120
 62
    11
 10
552002
 20
3251116
  0
VERTEX
  8
RA_6120
 62
    11
 10
551958
 20
3251075
  0
VERTEX
  8
RA_6120
 62
    11
 10
551934
 20
3251055
  0
VERTEX
  8
RA_6120
 62
    11
 10
551905
 20
3251048
  0
VERTEX
  8
RA_6120
 62
    11
 10
551819
 20
3250993
  0
VERTEX
  8
RA_6120
 62
    11
 10
551777
 20
3250963
  0
VERTEX
  8
RA_6120
 62
    11
 10
551730
 20
3250936
  0
VERTEX
  8
RA_6120
 62
    11
 10
551674
 20
3250907
  0
VERTEX
  8
RA_6120
 62
    11
 10
551641
 20
3250899
  0
VERTEX
  8
RA_6120
 62
    11
 10
551598
 20
3250901
  0
VERTEX
  8
RA_6120
 62
    11
 10
551566
 20
3250894
  0
VERTEX
  8
RA_6120
 62
    11
 10
551523
 20
3250891
  0
VERTEX
  8
RA_6120
 62
    11
 10
551478
 20
3250874
  0
VERTEX
  8
RA_6120
 62
    11
 10
551446
 20
3250867
  0
VERTEX
  8
RA_6120
 62
    11
 10
551416
 20
3250868
  0
VERTEX
  8
RA_6120
 62
    11
 10
551364
 20
3250857
  0
VERTEX
  8
RA_6120
 62
    11
 10
551315
 20
3250849
  0
VERTEX
  8
RA_6120
 62
    11
 10
551202
 20
3250838
  0
VERTEX
  8
RA_6120
 62
    11
 10
551174
 20
3250827
  0
VERTEX
  8
RA_6120
 62
    11
 10
551142
 20
3250808
  0
VERTEX
  8
RA_6120
 62
    11
 10
551109
 20
3250782
  0
VERTEX
  8
RA_6120
 62
    11
 10
551079
 20
3250746
  0
VERTEX
  8
RA_6120
 62
    11
 10
551050
 20
3250678
  0
VERTEX
  8
RA_6120
 62
    11
 10
551041
 20
3250636
  0
VERTEX
  8
RA_6120
 62
    11
 10
551036
 20
3250605
  0
VERTEX
  8
RA_6120
 62
    11
 10
551043
 20
3250551
  0
VERTEX
  8
RA_6120
 62
    11
 10
551046
 20
3250523
  0
VERTEX
  8
RA_6120
 62
    11
 10
551050
 20
3250503
  0
VERTEX
  8
RA_6120
 62
    11
 10
551030
 20
3250496
  0
VERTEX
  8
RA_6120
 62
    11
 10
551012
 20
3250492
  0
VERTEX
  8
RA_6120
 62
    11
 10
550955
 20
3250481
  0
VERTEX
  8
RA_6120
 62
    11
 10
550935
 20
3250478
  0
VERTEX
  8
RA_6120
 62
    11
 10
550914
 20
3250467
  0
VERTEX
  8
RA_6120
 62
    11
 10
550914
 20
3250446
  0
VERTEX
  8
RA_6120
 62
    11
 10
550933
 20
3250433
  0
VERTEX
  8
RA_6120
 62
    11
 10
550941
 20
3250422
  0
VERTEX
  8
RA_6120
 62
    11
 10
550924
 20
3250404
  0
VERTEX
  8
RA_6120
 62
    11
 10
550859
 20
3250353
  0
VERTEX
  8
RA_6120
 62
    11
 10
550801
 20
3250266
  0
VERTEX
  8
RA_6120
 62
    11
 10
550740
 20
3250180
  0
VERTEX
  8
RA_6120
 62
    11
 10
550717
 20
3250149
  0
VERTEX
  8
RA_6120
 62
    11
 10
550648
 20
3250075
  0
VERTEX
  8
RA_6120
 62
    11
 10
550625
 20
3250057
  0
VERTEX
  8
RA_6120
 62
    11
 10
550605
 20
3250033
  0
VERTEX
  8
RA_6120
 62
    11
 10
550587
 20
3250042
  0
VERTEX
  8
RA_6120
 62
    11
 10
550568
 20
3250063
  0
VERTEX
  8
RA_6120
 62
    11
 10
550553
 20
3250082
  0
VERTEX
  8
RA_6120
 62
    11
 10
550530
 20
3250097
  0
VERTEX
  8
RA_6120
 62
    11
 10
550509
 20
3250094
  0
VERTEX
  8
RA_6120
 62
    11
 10
550377
 20
3249986
  0
VERTEX
  8
RA_6120
 62
    11
 10
550252
 20
3249873
  0
VERTEX
  8
RA_6120
 62
    11
 10
550225
 20
3249852
  0
VERTEX
  8
RA_6120
 62
    11
 10
550200
 20
3249842
  0
VERTEX
  8
RA_6120
 62
    11
 10
550178
 20
3249854
  0
VERTEX
  8
RA_6120
 62
    11
 10
550161
 20
3249871
  0
VERTEX
  8
RA_6120
 62
    11
 10
550140
 20
3249882
  0
VERTEX
  8
RA_6120
 62
    11
 10
550116
 20
3249876
  0
VERTEX
  8
RA_6120
 62
    11
 10
550021
 20
3249792
  0
VERTEX
  8
RA_6120
 62
    11
 10
550000
 20
3249774
  0
VERTEX
  8
RA_6120
 62
    11
 10
549978
 20
3249760
  0
VERTEX
  8
RA_6120
 62
    11
 10
549946
 20
3249731
  0
VERTEX
  8
RA_6120
 62
    11
 10
549889
 20
3249665
  0
VERTEX
  8
RA_6120
 62
    11
 10
549857
 20
3249631
  0
VERTEX
  8
RA_6120
 62
    11
 10
549832
 20
3249638
  0
VERTEX
  8
RA_6120
 62
    11
 10
549818
 20
3249660
  0
VERTEX
  8
RA_6120
 62
    11
 10
549822
 20
3249685
  0
VERTEX
  8
RA_6120
 62
    11
 10
549818
 20
3249703
  0
VERTEX
  8
RA_6120
 62
    11
 10
549826
 20
3249737
  0
VERTEX
  8
RA_6120
 62
    11
 10
549849
 20
3249782
  0
VERTEX
  8
RA_6120
 62
    11
 10
549895
 20
3249866
  0
VERTEX
  8
RA_6120
 62
    11
 10
549926
 20
3249911
  0
VERTEX
  8
RA_6120
 62
    11
 10
549945
 20
3249928
  0
VERTEX
  8
RA_6120
 62
    11
 10
549962
 20
3249942
  0
VERTEX
  8
RA_6120
 62
    11
 10
549983
 20
3249958
  0
VERTEX
  8
RA_6120
 62
    11
 10
549998
 20
3250016
  0
VERTEX
  8
RA_6120
 62
    11
 10
550002
 20
3250048
  0
VERTEX
  8
RA_6120
 62
    11
 10
550011
 20
3250119
  0
VERTEX
  8
RA_6120
 62
    11
 10
550019
 20
3250158
  0
VERTEX
  8
RA_6120
 62
    11
 10
550026
 20
3250184
  0
VERTEX
  8
RA_6120
 62
    11
 10
550029
 20
3250219
  0
VERTEX
  8
RA_6120
 62
    11
 10
550030
 20
3250241
  0
VERTEX
  8
RA_6120
 62
    11
 10
550040
 20
3250259
  0
VERTEX
  8
RA_6120
 62
    11
 10
550052
 20
3250278
  0
VERTEX
  8
RA_6120
 62
    11
 10
550053
 20
3250296
  0
VERTEX
  8
RA_6120
 62
    11
 10
550048
 20
3250321
  0
VERTEX
  8
RA_6120
 62
    11
 10
550057
 20
3250340
  0
VERTEX
  8
RA_6120
 62
    11
 10
550071
 20
3250365
  0
VERTEX
  8
RA_6120
 62
    11
 10
550088
 20
3250422
  0
VERTEX
  8
RA_6120
 62
    11
 10
550094
 20
3250438
  0
VERTEX
  8
RA_6120
 62
    11
 10
550129
 20
3250485
  0
VERTEX
  8
RA_6120
 62
    11
 10
550161
 20
3250532
  0
VERTEX
  8
RA_6120
 62
    11
 10
550172
 20
3250546
  0
VERTEX
  8
RA_6120
 62
    11
 10
550185
 20
3250542
  0
VERTEX
  8
RA_6120
 62
    11
 10
550201
 20
3250504
  0
VERTEX
  8
RA_6120
 62
    11
 10
550226
 20
3250439
  0
VERTEX
  8
RA_6120
 62
    11
 10
550228
 20
3250419
  0
VERTEX
  8
RA_6120
 62
    11
 10
550235
 20
3250400
  0
VERTEX
  8
RA_6120
 62
    11
 10
550248
 20
3250392
  0
VERTEX
  8
RA_6120
 62
    11
 10
550266
 20
3250380
  0
VERTEX
  8
RA_6120
 62
    11
 10
550277
 20
3250381
  0
VERTEX
  8
RA_6120
 62
    11
 10
550278
 20
3250401
  0
SEQEND
  0
POLYLINE
  8
RA_6120
  6
CONTINUOUS
 62
    11
 66
     1
  0
VERTEX
  8
RA_6120
 62
    11
 10
556733
 20
3256830
  0
VERTEX
  8
RA_6120
 62
    11
 10
556769
 20
3256832
  0
SEQEND
  0
POLYLINE
  8
RA_6120
  6
CONTINUOUS
 62
    11
 66
     1
  0
VERTEX
  8
RA_6120
 62
    11
 10
556556
 20
3256982
  0
VERTEX
  8
RA_6120
 62
    11
 10
556557
 20
3257000
  0
VERTEX
  8
RA_6120
 62
    11
 10
556571
 20
3257011
  0
VERTEX
  8
RA_6120
 62
    11
 10
556603
 20
3257015
  0
VERTEX
  8
RA_6120
 62
    11
 10
556633
 20
3257015
  0
VERTEX
  8
RA_6120
 62
    11
 10
556667
 20
3257013
  0
VERTEX
  8
RA_6120
 62
    11
 10
556698
 20
3256990
  0
VERTEX
  8
RA_6120
 62
    11
 10
556710
 20
3256950
  0
VERTEX
  8
RA_6120
 62
    11
 10
556759
 20
3256865
  0
VERTEX
  8
RA_6120
 62
    11
 10
556769
 20
3256832
  0
SEQEND
  0
POLYLINE
  8
RA_6120
  6
CONTINUOUS
 62
    11
 66
     1
  0
VERTEX
  8
RA_6120
 62
    11
 10
549083
 20
3248110
  0
VERTEX
  8
RA_6120
 62
    11
 10
549057
 20
3248106
  0
VERTEX
  8
RA_6120
 62
    11
 10
549030
 20
3248097
  0
VERTEX
  8
RA_6120
 62
    11
 10
549007
 20
3248105
  0
VERTEX
  8
RA_6120
 62
    11
 10
548936
 20
3248137
  0
VERTEX
  8
RA_6120
 62
    11
 10
548912
 20
3248132
  0
VERTEX
  8
RA_6120
 62
    11
 10
548886
 20
3248126
  0
VERTEX
  8
RA_6120
 62
    11
 10
548839
 20
3248140
  0
VERTEX
  8
RA_6120
 62
    11
 10
548811
 20
3248154
  0
VERTEX
  8
RA_6120
 62
    11
 10
548820
 20
3248177
  0
VERTEX
  8
RA_6120
 62
    11
 10
548867
 20
3248186
  0
VERTEX
  8
RA_6120
 62
    11
 10
548906
 20
3248205
  0
VERTEX
  8
RA_6120
 62
    11
 10
548930
 20
3248220
  0
VERTEX
  8
RA_6120
 62
    11
 10
548935
 20
3248236
  0
VERTEX
  8
RA_6120
 62
    11
 10
548930
 20
3248258
  0
VERTEX
  8
RA_6120
 62
    11
 10
548923
 20
3248273
  0
VERTEX
  8
RA_6120
 62
    11
 10
548956
 20
3248286
  0
VERTEX
  8
RA_6120
 62
    11
 10
548997
 20
3248292
  0
VERTEX
  8
RA_6120
 62
    11
 10
549115
 20
3248336
  0
VERTEX
  8
RA_6120
 62
    11
 10
549200
 20
3248366
  0
VERTEX
  8
RA_6120
 62
    11
 10
549223
 20
3248390
  0
VERTEX
  8
RA_6120
 62
    11
 10
549262
 20
3248430
  0
VERTEX
  8
RA_6120
 62
    11
 10
549292
 20
3248436
  0
VERTEX
  8
RA_6120
 62
    11
 10
549326
 20
3248451
  0
VERTEX
  8
RA_6120
 62
    11
 10
549361
 20
3248473
  0
VERTEX
  8
RA_6120
 62
    11
 10
549433
 20
3248524
  0
VERTEX
  8
RA_6120
 62
    11
 10
549466
 20
3248574
  0
VERTEX
  8
RA_6120
 62
    11
 10
549517
 20
3248673
  0
VERTEX
  8
RA_6120
 62
    11
 10
549567
 20
3248795
  0
VERTEX
  8
RA_6120
 62
    11
 10
549576
 20
3248836
  0
VERTEX
  8
RA_6120
 62
    11
 10
549595
 20
3248872
  0
VERTEX
  8
RA_6120
 62
    11
 10
549622
 20
3248910
  0
VERTEX
  8
RA_6120
 62
    11
 10
549647
 20
3248936
  0
VERTEX
  8
RA_6120
 62
    11
 10
549709
 20
3248993
  0
VERTEX
  8
RA_6120
 62
    11
 10
549762
 20
3249021
  0
VERTEX
  8
RA_6120
 62
    11
 10
549805
 20
3249037
  0
VERTEX
  8
RA_6120
 62
    11
 10
549843
 20
3249039
  0
VERTEX
  8
RA_6120
 62
    11
 10
549867
 20
3249033
  0
VERTEX
  8
RA_6120
 62
    11
 10
549897
 20
3249018
  0
VERTEX
  8
RA_6120
 62
    11
 10
549927
 20
3249013
  0
VERTEX
  8
RA_6120
 62
    11
 10
549977
 20
3249028
  0
VERTEX
  8
RA_6120
 62
    11
 10
550010
 20
3249063
  0
VERTEX
  8
RA_6120
 62
    11
 10
550034
 20
3249101
  0
VERTEX
  8
RA_6120
 62
    11
 10
550090
 20
3249140
  0
VERTEX
  8
RA_6120
 62
    11
 10
550153
 20
3249178
  0
VERTEX
  8
RA_6120
 62
    11
 10
550192
 20
3249206
  0
VERTEX
  8
RA_6120
 62
    11
 10
550201
 20
3249228
  0
VERTEX
  8
RA_6120
 62
    11
 10
550184
 20
3249257
  0
VERTEX
  8
RA_6120
 62
    11
 10
550151
 20
3249308
  0
VERTEX
  8
RA_6120
 62
    11
 10
550153
 20
3249354
  0
VERTEX
  8
RA_6120
 62
    11
 10
550165
 20
3249390
  0
VERTEX
  8
RA_6120
 62
    11
 10
550195
 20
3249415
  0
VERTEX
  8
RA_6120
 62
    11
 10
550224
 20
3249429
  0
VERTEX
  8
RA_6120
 62
    11
 10
550243
 20
3249454
  0
VERTEX
  8
RA_6120
 62
    11
 10
550263
 20
3249476
  0
VERTEX
  8
RA_6120
 62
    11
 10
550307
 20
3249500
  0
VERTEX
  8
RA_6120
 62
    11
 10
550374
 20
3249547
  0
VERTEX
  8
RA_6120
 62
    11
 10
550415
 20
3249552
  0
VERTEX
  8
RA_6120
 62
    11
 10
550452
 20
3249559
  0
VERTEX
  8
RA_6120
 62
    11
 10
550487
 20
3249532
  0
VERTEX
  8
RA_6120
 62
    11
 10
550486
 20
3249513
  0
VERTEX
  8
RA_6120
 62
    11
 10
550499
 20
3249505
  0
VERTEX
  8
RA_6120
 62
    11
 10
550521
 20
3249504
  0
VERTEX
  8
RA_6120
 62
    11
 10
550543
 20
3249507
  0
VERTEX
  8
RA_6120
 62
    11
 10
550590
 20
3249485
  0
VERTEX
  8
RA_6120
 62
    11
 10
550636
 20
3249447
  0
VERTEX
  8
RA_6120
 62
    11
 10
550664
 20
3249422
  0
VERTEX
  8
RA_6120
 62
    11
 10
550682
 20
3249391
  0
VERTEX
  8
RA_6120
 62
    11
 10
550700
 20
3249361
  0
VERTEX
  8
RA_6120
 62
    11
 10
550724
 20
3249309
  0
VERTEX
  8
RA_6120
 62
    11
 10
550752
 20
3249242
  0
VERTEX
  8
RA_6120
 62
    11
 10
550771
 20
3249160
  0
VERTEX
  8
RA_6120
 62
    11
 10
550764
 20
3249094
  0
VERTEX
  8
RA_6120
 62
    11
 10
550753
 20
3249091
  0
VERTEX
  8
RA_6120
 62
    11
 10
550737
 20
3249134
  0
VERTEX
  8
RA_6120
 62
    11
 10
550717
 20
3249162
  0
VERTEX
  8
RA_6120
 62
    11
 10
550708
 20
3249166
  0
VERTEX
  8
RA_6120
 62
    11
 10
550689
 20
3249155
  0
VERTEX
  8
RA_6120
 62
    11
 10
550667
 20
3249146
  0
VERTEX
  8
RA_6120
 62
    11
 10
550646
 20
3249134
  0
VERTEX
  8
RA_6120
 62
    11
 10
550625
 20
3249118
  0
VERTEX
  8
RA_6120
 62
    11
 10
550593
 20
3249099
  0
VERTEX
  8
RA_6120
 62
    11
 10
550577
 20
3249090
  0
VERTEX
  8
RA_6120
 62
    11
 10
550565
 20
3249093
  0
VERTEX
  8
RA_6120
 62
    11
 10
550535
 20
3249096
  0
VERTEX
  8
RA_6120
 62
    11
 10
550533
 20
3249093
  0
VERTEX
  8
RA_6120
 62
    11
 10
550533
 20
3249083
  0
VERTEX
  8
RA_6120
 62
    11
 10
550540
 20
3249069
  0
VERTEX
  8
RA_6120
 62
    11
 10
550565
 20
3249051
  0
VERTEX
  8
RA_6120
 62
    11
 10
550585
 20
3249039
  0
VERTEX
  8
RA_6120
 62
    11
 10
550604
 20
3249012
  0
VERTEX
  8
RA_6120
 62
    11
 10
550575
 20
3248994
  0
VERTEX
  8
RA_6120
 62
    11
 10
550542
 20
3248996
  0
VERTEX
  8
RA_6120
 62
    11
 10
550518
 20
3248990
  0
VERTEX
  8
RA_6120
 62
    11
 10
550494
 20
3248979
  0
VERTEX
  8
RA_6120
 62
    11
 10
550473
 20
3248966
  0
VERTEX
  8
RA_6120
 62
    11
 10
550439
 20
3248926
  0
VERTEX
  8
RA_6120
 62
    11
 10
550411
 20
3248908
  0
VERTEX
  8
RA_6120
 62
    11
 10
550393
 20
3248891
  0
VERTEX
  8
RA_6120
 62
    11
 10
550373
 20
3248853
  0
VERTEX
  8
RA_6120
 62
    11
 10
550347
 20
3248835
  0
VERTEX
  8
RA_6120
 62
    11
 10
550318
 20
3248809
  0
VERTEX
  8
RA_6120
 62
    11
 10
550246
 20
3248747
  0
VERTEX
  8
RA_6120
 62
    11
 10
550204
 20
3248722
  0
VERTEX
  8
RA_6120
 62
    11
 10
550172
 20
3248704
  0
VERTEX
  8
RA_6120
 62
    11
 10
550125
 20
3248715
  0
VERTEX
  8
RA_6120
 62
    11
 10
550106
 20
3248718
  0
VERTEX
  8
RA_6120
 62
    11
 10
550054
 20
3248700
  0
VERTEX
  8
RA_6120
 62
    11
 10
550027
 20
3248681
  0
VERTEX
  8
RA_6120
 62
    11
 10
549982
 20
3248637
  0
VERTEX
  8
RA_6120
 62
    11
 10
549973
 20
3248626
  0
VERTEX
  8
RA_6120
 62
    11
 10
549944
 20
3248587
  0
VERTEX
  8
RA_6120
 62
    11
 10
549930
 20
3248552
  0
VERTEX
  8
RA_6120
 62
    11
 10
549906
 20
3248511
  0
VERTEX
  8
RA_6120
 62
    11
 10
549885
 20
3248477
  0
VERTEX
  8
RA_6120
 62
    11
 10
549859
 20
3248453
  0
VERTEX
  8
RA_6120
 62
    11
 10
549832
 20
3248447
  0
VERTEX
  8
RA_6120
 62
    11
 10
549785
 20
3248457
  0
VERTEX
  8
RA_6120
 62
    11
 10
549762
 20
3248431
  0
VERTEX
  8
RA_6120
 62
    11
 10
549758
 20
3248418
  0
VERTEX
  8
RA_6120
 62
    11
 10
549777
 20
3248379
  0
VERTEX
  8
RA_6120
 62
    11
 10
549779
 20
3248364
  0
VERTEX
  8
RA_6120
 62
    11
 10
549770
 20
3248350
  0
VERTEX
  8
RA_6120
 62
    11
 10
549749
 20
3248340
  0
VERTEX
  8
RA_6120
 62
    11
 10
549706
 20
3248310
  0
VERTEX
  8
RA_6120
 62
    11
 10
549690
 20
3248271
  0
VERTEX
  8
RA_6120
 62
    11
 10
549668
 20
3248243
  0
VERTEX
  8
RA_6120
 62
    11
 10
549644
 20
3248232
  0
VERTEX
  8
RA_6120
 62
    11
 10
549631
 20
3248239
  0
VERTEX
  8
RA_6120
 62
    11
 10
549608
 20
3248219
  0
VERTEX
  8
RA_6120
 62
    11
 10
549598
 20
3248208
  0
VERTEX
  8
RA_6120
 62
    11
 10
549566
 20
3248179
  0
VERTEX
  8
RA_6120
 62
    11
 10
549555
 20
3248172
  0
VERTEX
  8
RA_6120
 62
    11
 10
549483
 20
3248115
  0
VERTEX
  8
RA_6120
 62
    11
 10
549453
 20
3248098
  0
VERTEX
  8
RA_6120
 62
    11
 10
549424
 20
3248099
  0
VERTEX
  8
RA_6120
 62
    11
 10
549374
 20
3248115
  0
VERTEX
  8
RA_6120
 62
    11
 10
549343
 20
3248140
  0
VERTEX
  8
RA_6120
 62
    11
 10
549325
 20
3248160
  0
VERTEX
  8
RA_6120
 62
    11
 10
549302
 20
3248174
  0
VERTEX
  8
RA_6120
 62
    11
 10
549275
 20
3248174
  0
VERTEX
  8
RA_6120
 62
    11
 10
549250
 20
3248162
  0
VERTEX
  8
RA_6120
 62
    11
 10
549228
 20
3248147
  0
VERTEX
  8
RA_6120
 62
    11
 10
549197
 20
3248139
  0
VERTEX
  8
RA_6120
 62
    11
 10
549171
 20
3248134
  0
VERTEX
  8
RA_6120
 62
    11
 10
549130
 20
3248119
  0
SEQEND
  0
POLYLINE
  8
RA_6120
  6
CONTINUOUS
 62
    11
 66
     1
  0
VERTEX
  8
RA_6120
 62
    11
 10
550226
 20
3250573
  0
VERTEX
  8
RA_6120
 62
    11
 10
550228
 20
3250523
  0
VERTEX
  8
RA_6120
 62
    11
 10
550238
 20
3250484
  0
VERTEX
  8
RA_6120
 62
    11
 10
550256
 20
3250437
  0
VERTEX
  8
RA_6120
 62
    11
 10
550278
 20
3250401
  0
SEQEND
  0
POLYLINE
  8
RA_6120
  6
CONTINUOUS
 62
    11
 66
     1
  0
VERTEX
  8
RA_6120
 62
    11
 10
555336
 20
3252331
  0
VERTEX
  8
RA_6120
 62
    11
 10
555309
 20
3252302
  0
VERTEX
  8
RA_6120
 62
    11
 10
555278
 20
3252275
  0
VERTEX
  8
RA_6120
 62
    11
 10
555276
 20
3252263
  0
VERTEX
  8
RA_6120
 62
    11
 10
555309
 20
3252205
  0
VERTEX
  8
RA_6120
 62
    11
 10
555371
 20
3252239
  0
VERTEX
  8
RA_6120
 62
    11
 10
555396
 20
3252230
  0
VERTEX
  8
RA_6120
 62
    11
 10
555439
 20
3252271
  0
VERTEX
  8
RA_6120
 62
    11
 10
555461
 20
3252296
  0
SEQEND
  0
POLYLINE
  8
RA_6120
  6
CONTINUOUS
 62
    11
 66
     1
  0
VERTEX
  8
RA_6120
 62
    11
 10
558915
 20
3257949
  0
VERTEX
  8
RA_6120
 62
    11
 10
558937
 20
3257930
  0
VERTEX
  8
RA_6120
 62
    11
 10
558969
 20
3257919
  0
VERTEX
  8
RA_6120
 62
    11
 10
559006
 20
3257914
  0
VERTEX
  8
RA_6120
 62
    11
 10
559048
 20
3257896
  0
VERTEX
  8
RA_6120
 62
    11
 10
559100
 20
3257887
  0
VERTEX
  8
RA_6120
 62
    11
 10
559128
 20
3257881
  0
VERTEX
  8
RA_6120
 62
    11
 10
559159
 20
3257879
  0
VERTEX
  8
RA_6120
 62
    11
 10
559177
 20
3257877
  0
VERTEX
  8
RA_6120
 62
    11
 10
559227
 20
3257868
  0
VERTEX
  8
RA_6120
 62
    11
 10
559254
 20
3257858
  0
VERTEX
  8
RA_6120
 62
    11
 10
559274
 20
3257851
  0
VERTEX
  8
RA_6120
 62
    11
 10
559292
 20
3257841
  0
VERTEX
  8
RA_6120
 62
    11
 10
559293
 20
3257829
  0
VERTEX
  8
RA_6120
 62
    11
 10
559283
 20
3257820
  0
VERTEX
  8
RA_6120
 62
    11
 10
559261
 20
3257817
  0
VERTEX
  8
RA_6120
 62
    11
 10
559240
 20
3257812
  0
VERTEX
  8
RA_6120
 62
    11
 10
559220
 20
3257805
  0
VERTEX
  8
RA_6120
 62
    11
 10
559208
 20
3257797
  0
VERTEX
  8
RA_6120
 62
    11
 10
559212
 20
3257789
  0
VERTEX
  8
RA_6120
 62
    11
 10
559231
 20
3257782
  0
VERTEX
  8
RA_6120
 62
    11
 10
559265
 20
3257783
  0
VERTEX
  8
RA_6120
 62
    11
 10
559294
 20
3257787
  0
VERTEX
  8
RA_6120
 62
    11
 10
559312
 20
3257789
  0
VERTEX
  8
RA_6120
 62
    11
 10
559318
 20
3257779
  0
VERTEX
  8
RA_6120
 62
    11
 10
559311
 20
3257766
  0
VERTEX
  8
RA_6120
 62
    11
 10
559305
 20
3257754
  0
VERTEX
  8
RA_6120
 62
    11
 10
559302
 20
3257729
  0
VERTEX
  8
RA_6120
 62
    11
 10
559305
 20
3257716
  0
VERTEX
  8
RA_6120
 62
    11
 10
559331
 20
3257714
  0
VERTEX
  8
RA_6120
 62
    11
 10
559374
 20
3257719
  0
VERTEX
  8
RA_6120
 62
    11
 10
559398
 20
3257722
  0
VERTEX
  8
RA_6120
 62
    11
 10
559412
 20
3257727
  0
VERTEX
  8
RA_6120
 62
    11
 10
559413
 20
3257741
  0
VERTEX
  8
RA_6120
 62
    11
 10
559395
 20
3257789
  0
VERTEX
  8
RA_6120
 62
    11
 10
559382
 20
3257833
  0
VERTEX
  8
RA_6120
 62
    11
 10
559387
 20
3257868
  0
VERTEX
  8
RA_6120
 62
    11
 10
559431
 20
3257900
  0
VERTEX
  8
RA_6120
 62
    11
 10
559481
 20
3257925
  0
VERTEX
  8
RA_6120
 62
    11
 10
559519
 20
3257937
  0
VERTEX
  8
RA_6120
 62
    11
 10
559537
 20
3257935
  0
VERTEX
  8
RA_6120
 62
    11
 10
559553
 20
3257942
  0
VERTEX
  8
RA_6120
 62
    11
 10
559548
 20
3257963
  0
VERTEX
  8
RA_6120
 62
    11
 10
559539
 20
3258002
  0
SEQEND
  0
POLYLINE
  8
RA_6120
  6
CONTINUOUS
 62
    11
 66
     1
  0
VERTEX
  8
RA_6120
 62
    11
 10
556733
 20
3256830
  0
VERTEX
  8
RA_6120
 62
    11
 10
556733
 20
3256808
  0
VERTEX
  8
RA_6120
 62
    11
 10
556751
 20
3256790
  0
VERTEX
  8
RA_6120
 62
    11
 10
556780
 20
3256771
  0
VERTEX
  8
RA_6120
 62
    11
 10
556806
 20
3256744
  0
VERTEX
  8
RA_6120
 62
    11
 10
556821
 20
3256721
  0
VERTEX
  8
RA_6120
 62
    11
 10
556844
 20
3256684
  0
VERTEX
  8
RA_6120
 62
    11
 10
556865
 20
3256654
  0
VERTEX
  8
RA_6120
 62
    11
 10
556906
 20
3256629
  0
VERTEX
  8
RA_6120
 62
    11
 10
556920
 20
3256604
  0
VERTEX
  8
RA_6120
 62
    11
 10
556928
 20
3256579
  0
VERTEX
  8
RA_6120
 62
    11
 10
556927
 20
3256550
  0
VERTEX
  8
RA_6120
 62
    11
 10
556936
 20
3256523
  0
VERTEX
  8
RA_6120
 62
    11
 10
556951
 20
3256504
  0
VERTEX
  8
RA_6120
 62
    11
 10
556975
 20
3256497
  0
VERTEX
  8
RA_6120
 62
    11
 10
556999
 20
3256492
  0
VERTEX
  8
RA_6120
 62
    11
 10
557040
 20
3256496
  0
VERTEX
  8
RA_6120
 62
    11
 10
557056
 20
3256492
  0
VERTEX
  8
RA_6120
 62
    11
 10
557074
 20
3256508
  0
VERTEX
  8
RA_6120
 62
    11
 10
557098
 20
3256525
  0
VERTEX
  8
RA_6120
 62
    11
 10
557117
 20
3256549
  0
VERTEX
  8
RA_6120
 62
    11
 10
557122
 20
3256571
  0
VERTEX
  8
RA_6120
 62
    11
 10
557130
 20
3256645
  0
VERTEX
  8
RA_6120
 62
    11
 10
557150
 20
3256700
  0
VERTEX
  8
RA_6120
 62
    11
 10
557154
 20
3256704
  0
VERTEX
  8
RA_6120
 62
    11
 10
557188
 20
3256757
  0
VERTEX
  8
RA_6120
 62
    11
 10
557213
 20
3256768
  0
VERTEX
  8
RA_6120
 62
    11
 10
557237
 20
3256757
  0
VERTEX
  8
RA_6120
 62
    11
 10
557266
 20
3256750
  0
VERTEX
  8
RA_6120
 62
    11
 10
557302
 20
3256754
  0
VERTEX
  8
RA_6120
 62
    11
 10
557321
 20
3256743
  0
VERTEX
  8
RA_6120
 62
    11
 10
557336
 20
3256719
  0
VERTEX
  8
RA_6120
 62
    11
 10
557352
 20
3256656
  0
VERTEX
  8
RA_6120
 62
    11
 10
557360
 20
3256549
  0
VERTEX
  8
RA_6120
 62
    11
 10
557342
 20
3256519
  0
VERTEX
  8
RA_6120
 62
    11
 10
557365
 20
3256497
  0
VERTEX
  8
RA_6120
 62
    11
 10
557385
 20
3256469
  0
VERTEX
  8
RA_6120
 62
    11
 10
557403
 20
3256433
  0
VERTEX
  8
RA_6120
 62
    11
 10
557417
 20
3256416
  0
VERTEX
  8
RA_6120
 62
    11
 10
557438
 20
3256422
  0
VERTEX
  8
RA_6120
 62
    11
 10
557454
 20
3256442
  0
VERTEX
  8
RA_6120
 62
    11
 10
557440
 20
3256475
  0
VERTEX
  8
RA_6120
 62
    11
 10
557434
 20
3256496
  0
VERTEX
  8
RA_6120
 62
    11
 10
557415
 20
3256558
  0
VERTEX
  8
RA_6120
 62
    11
 10
557422
 20
3256579
  0
VERTEX
  8
RA_6120
 62
    11
 10
557440
 20
3256596
  0
VERTEX
  8
RA_6120
 62
    11
 10
557435
 20
3256616
  0
VERTEX
  8
RA_6120
 62
    11
 10
557411
 20
3256650
  0
VERTEX
  8
RA_6120
 62
    11
 10
557399
 20
3256658
  0
VERTEX
  8
RA_6120
 62
    11
 10
557372
 20
3256691
  0
SEQEND
  0
POLYLINE
  8
RA_6120
  6
CONTINUOUS
 62
    11
 66
     1
  0
VERTEX
  8
RA_6120
 62
    11
 10
557463
 20
3256924
  0
VERTEX
  8
RA_6120
 62
    11
 10
557503
 20
3256937
  0
VERTEX
  8
RA_6120
 62
    11
 10
557556
 20
3256956
  0
SEQEND
  0
POLYLINE
  8
RA_6120
  6
CONTINUOUS
 62
    11
 66
     1
  0
VERTEX
  8
RA_6120
 62
    11
 10
549130
 20
3248119
  0
VERTEX
  8
RA_6120
 62
    11
 10
549110
 20
3248139
  0
SEQEND
  0
POLYLINE
  8
RA_6120
  6
CONTINUOUS
 62
    11
 66
     1
  0
VERTEX
  8
RA_6120
 62
    11
 10
537651
 20
3240506
  0
VERTEX
  8
RA_6120
 62
    11
 10
537668
 20
3240440
  0
VERTEX
  8
RA_6120
 62
    11
 10
537678
 20
3240369
  0
SEQEND
  0
POLYLINE
  8
RA_6120
  6
CONTINUOUS
 62
    11
 66
     1
  0
VERTEX
  8
RA_6120
 62
    11
 10
538086
 20
3240022
  0
VERTEX
  8
RA_6120
 62
    11
 10
538083
 20
3240008
  0
VERTEX
  8
RA_6120
 62
    11
 10
538082
 20
3239981
  0
VERTEX
  8
RA_6120
 62
    11
 10
538084
 20
3239960
  0
VERTEX
  8
RA_6120
 62
    11
 10
538078
 20
3239937
  0
VERTEX
  8
RA_6120
 62
    11
 10
538072
 20
3239918
  0
VERTEX
  8
RA_6120
 62
    11
 10
538073
 20
3239902
  0
VERTEX
  8
RA_6120
 62
    11
 10
538087
 20
3239884
  0
VERTEX
  8
RA_6120
 62
    11
 10
538102
 20
3239874
  0
VERTEX
  8
RA_6120
 62
    11
 10
538110
 20
3239859
  0
VERTEX
  8
RA_6120
 62
    11
 10
538110
 20
3239832
  0
VERTEX
  8
RA_6120
 62
    11
 10
538102
 20
3239821
  0
VERTEX
  8
RA_6120
 62
    11
 10
538092
 20
3239803
  0
VERTEX
  8
RA_6120
 62
    11
 10
538091
 20
3239776
  0
VERTEX
  8
RA_6120
 62
    11
 10
538092
 20
3239687
  0
VERTEX
  8
RA_6120
 62
    11
 10
538095
 20
3239628
  0
VERTEX
  8
RA_6120
 62
    11
 10
538081
 20
3239616
  0
VERTEX
  8
RA_6120
 62
    11
 10
538061
 20
3239606
  0
VERTEX
  8
RA_6120
 62
    11
 10
538040
 20
3239597
  0
VERTEX
  8
RA_6120
 62
    11
 10
538025
 20
3239578
  0
VERTEX
  8
RA_6120
 62
    11
 10
538018
 20
3239557
  0
VERTEX
  8
RA_6120
 62
    11
 10
538000
 20
3239544
  0
VERTEX
  8
RA_6120
 62
    11
 10
537979
 20
3239533
  0
VERTEX
  8
RA_6120
 62
    11
 10
537932
 20
3239500
  0
VERTEX
  8
RA_6120
 62
    11
 10
537924
 20
3239495
  0
VERTEX
  8
RA_6120
 62
    11
 10
537908
 20
3239487
  0
SEQEND
  0
POLYLINE
  8
RA_6120
  6
CONTINUOUS
 62
    11
 66
     1
  0
VERTEX
  8
RA_6120
 62
    11
 10
555336
 20
3252331
  0
VERTEX
  8
RA_6120
 62
    11
 10
555363
 20
3252317
  0
VERTEX
  8
RA_6120
 62
    11
 10
555409
 20
3252310
  0
VERTEX
  8
RA_6120
 62
    11
 10
555438
 20
3252304
  0
VERTEX
  8
RA_6120
 62
    11
 10
555461
 20
3252296
  0
SEQEND
  0
POLYLINE
  8
RA_6120
  6
CONTINUOUS
 62
    11
 66
     1
  0
VERTEX
  8
RA_6120
 62
    11
 10
537329
 20
3239964
  0
VERTEX
  8
RA_6120
 62
    11
 10
537379
 20
3240008
  0
VERTEX
  8
RA_6120
 62
    11
 10
537407
 20
3240029
  0
SEQEND
  0
POLYLINE
  8
RA_6120
  6
CONTINUOUS
 62
    11
 66
     1
  0
VERTEX
  8
RA_6120
 62
    11
 10
534211
 20
3249596
  0
VERTEX
  8
RA_6120
 62
    11
 10
534162
 20
3249598
  0
VERTEX
  8
RA_6120
 62
    11
 10
534112
 20
3249592
  0
VERTEX
  8
RA_6120
 62
    11
 10
534084
 20
3249589
  0
VERTEX
  8
RA_6120
 62
    11
 10
534058
 20
3249587
  0
VERTEX
  8
RA_6120
 62
    11
 10
534060
 20
3249566
  0
VERTEX
  8
RA_6120
 62
    11
 10
534073
 20
3249539
  0
VERTEX
  8
RA_6120
 62
    11
 10
534072
 20
3249511
  0
VERTEX
  8
RA_6120
 62
    11
 10
534081
 20
3249481
  0
VERTEX
  8
RA_6120
 62
    11
 10
534087
 20
3249458
  0
VERTEX
  8
RA_6120
 62
    11
 10
534082
 20
3249433
  0
SEQEND
  0
POLYLINE
  8
RA_6120
  6
CONTINUOUS
 62
    11
 66
     1
  0
VERTEX
  8
RA_6120
 62
    11
 10
557676
 20
3257734
  0
VERTEX
  8
RA_6120
 62
    11
 10
557698
 20
3257658
  0
VERTEX
  8
RA_6120
 62
    11
 10
557707
 20
3257627
  0
SEQEND
  0
POLYLINE
  8
RA_6120
  6
CONTINUOUS
 62
    11
 66
     1
  0
VERTEX
  8
RA_6120
 62
    11
 10
557355
 20
3256745
  0
VERTEX
  8
RA_6120
 62
    11
 10
557372
 20
3256691
  0
SEQEND
  0
POLYLINE
  8
RA_6120
  6
CONTINUOUS
 62
    11
 66
     1
  0
VERTEX
  8
RA_6120
 62
    11
 10
557463
 20
3256924
  0
VERTEX
  8
RA_6120
 62
    11
 10
557431
 20
3256971
  0
VERTEX
  8
RA_6120
 62
    11
 10
557399
 20
3257021
  0
VERTEX
  8
RA_6120
 62
    11
 10
557387
 20
3257062
  0
VERTEX
  8
RA_6120
 62
    11
 10
557381
 20
3257083
  0
VERTEX
  8
RA_6120
 62
    11
 10
557387
 20
3257132
  0
VERTEX
  8
RA_6120
 62
    11
 10
557393
 20
3257167
  0
VERTEX
  8
RA_6120
 62
    11
 10
557385
 20
3257202
  0
VERTEX
  8
RA_6120
 62
    11
 10
557384
 20
3257204
  0
VERTEX
  8
RA_6120
 62
    11
 10
557338
 20
3257272
  0
VERTEX
  8
RA_6120
 62
    11
 10
557313
 20
3257306
  0
VERTEX
  8
RA_6120
 62
    11
 10
557317
 20
3257327
  0
VERTEX
  8
RA_6120
 62
    11
 10
557337
 20
3257347
  0
VERTEX
  8
RA_6120
 62
    11
 10
557372
 20
3257357
  0
VERTEX
  8
RA_6120
 62
    11
 10
557390
 20
3257368
  0
VERTEX
  8
RA_6120
 62
    11
 10
557395
 20
3257373
  0
VERTEX
  8
RA_6120
 62
    11
 10
557445
 20
3257420
  0
VERTEX
  8
RA_6120
 62
    11
 10
557479
 20
3257443
  0
VERTEX
  8
RA_6120
 62
    11
 10
557603
 20
3257511
  0
VERTEX
  8
RA_6120
 62
    11
 10
557675
 20
3257538
  0
VERTEX
  8
RA_6120
 62
    11
 10
557700
 20
3257549
  0
VERTEX
  8
RA_6120
 62
    11
 10
557727
 20
3257560
  0
SEQEND
  0
POLYLINE
  8
RA_6120
  6
CONTINUOUS
 62
    11
 66
     1
  0
VERTEX
  8
RA_6120
 62
    11
 10
537739
 20
3239775
  0
VERTEX
  8
RA_6120
 62
    11
 10
537749
 20
3239796
  0
VERTEX
  8
RA_6120
 62
    11
 10
537760
 20
3239806
  0
VERTEX
  8
RA_6120
 62
    11
 10
537780
 20
3239817
  0
VERTEX
  8
RA_6120
 62
    11
 10
537843
 20
3239855
  0
VERTEX
  8
RA_6120
 62
    11
 10
537856
 20
3239874
  0
VERTEX
  8
RA_6120
 62
    11
 10
537841
 20
3239883
  0
VERTEX
  8
RA_6120
 62
    11
 10
537826
 20
3239886
  0
VERTEX
  8
RA_6120
 62
    11
 10
537829
 20
3239915
  0
VERTEX
  8
RA_6120
 62
    11
 10
537837
 20
3239923
  0
VERTEX
  8
RA_6120
 62
    11
 10
537930
 20
3240013
  0
VERTEX
  8
RA_6120
 62
    11
 10
537952
 20
3240042
  0
SEQEND
  0
POLYLINE
  8
RA_6120
  6
CONTINUOUS
 62
    11
 66
     1
  0
VERTEX
  8
RA_6120
 62
    11
 10
553757
 20
3251224
  0
VERTEX
  8
RA_6120
 62
    11
 10
553752
 20
3251244
  0
VERTEX
  8
RA_6120
 62
    11
 10
553836
 20
3251353
  0
VERTEX
  8
RA_6120
 62
    11
 10
553725
 20
3251399
  0
VERTEX
  8
RA_6120
 62
    11
 10
553713
 20
3251422
  0
VERTEX
  8
RA_6120
 62
    11
 10
553727
 20
3251445
  0
VERTEX
  8
RA_6120
 62
    11
 10
553748
 20
3251466
  0
VERTEX
  8
RA_6120
 62
    11
 10
553767
 20
3251483
  0
VERTEX
  8
RA_6120
 62
    11
 10
553798
 20
3251508
  0
VERTEX
  8
RA_6120
 62
    11
 10
553803
 20
3251535
  0
VERTEX
  8
RA_6120
 62
    11
 10
553798
 20
3251559
  0
VERTEX
  8
RA_6120
 62
    11
 10
553804
 20
3251599
  0
VERTEX
  8
RA_6120
 62
    11
 10
553791
 20
3251644
  0
VERTEX
  8
RA_6120
 62
    11
 10
553787
 20
3251669
  0
VERTEX
  8
RA_6120
 62
    11
 10
553797
 20
3251708
  0
VERTEX
  8
RA_6120
 62
    11
 10
553819
 20
3251725
  0
VERTEX
  8
RA_6120
 62
    11
 10
553845
 20
3251731
  0
VERTEX
  8
RA_6120
 62
    11
 10
553882
 20
3251728
  0
VERTEX
  8
RA_6120
 62
    11
 10
553903
 20
3251730
  0
SEQEND
  0
POLYLINE
  8
RA_6120
  6
CONTINUOUS
 62
    11
 66
     1
  0
VERTEX
  8
RA_6120
 62
    11
 10
563195
 20
3252838
  0
VERTEX
  8
RA_6120
 62
    11
 10
563170
 20
3252866
  0
VERTEX
  8
RA_6120
 62
    11
 10
563177
 20
3252877
  0
VERTEX
  8
RA_6120
 62
    11
 10
563183
 20
3252878
  0
VERTEX
  8
RA_6120
 62
    11
 10
563185
 20
3252899
  0
VERTEX
  8
RA_6120
 62
    11
 10
563174
 20
3252915
  0
VERTEX
  8
RA_6120
 62
    11
 10
563161
 20
3252937
  0
VERTEX
  8
RA_6120
 62
    11
 10
563122
 20
3252997
  0
VERTEX
  8
RA_6120
 62
    11
 10
563109
 20
3253014
  0
VERTEX
  8
RA_6120
 62
    11
 10
563126
 20
3253032
  0
VERTEX
  8
RA_6120
 62
    11
 10
563141
 20
3253043
  0
VERTEX
  8
RA_6120
 62
    11
 10
563215
 20
3253098
  0
VERTEX
  8
RA_6120
 62
    11
 10
563248
 20
3253121
  0
VERTEX
  8
RA_6120
 62
    11
 10
563267
 20
3253131
  0
VERTEX
  8
RA_6120
 62
    11
 10
563290
 20
3253117
  0
VERTEX
  8
RA_6120
 62
    11
 10
563322
 20
3253083
  0
VERTEX
  8
RA_6120
 62
    11
 10
563338
 20
3253075
  0
VERTEX
  8
RA_6120
 62
    11
 10
563361
 20
3253064
  0
VERTEX
  8
RA_6120
 62
    11
 10
563388
 20
3253031
  0
VERTEX
  8
RA_6120
 62
    11
 10
563455
 20
3252950
  0
VERTEX
  8
RA_6120
 62
    11
 10
563470
 20
3252933
  0
VERTEX
  8
RA_6120
 62
    11
 10
563476
 20
3252888
  0
VERTEX
  8
RA_6120
 62
    11
 10
563498
 20
3252860
  0
VERTEX
  8
RA_6120
 62
    11
 10
563576
 20
3252773
  0
VERTEX
  8
RA_6120
 62
    11
 10
563647
 20
3252694
  0
VERTEX
  8
RA_6120
 62
    11
 10
563687
 20
3252651
  0
VERTEX
  8
RA_6120
 62
    11
 10
563697
 20
3252629
  0
VERTEX
  8
RA_6120
 62
    11
 10
563690
 20
3252611
  0
VERTEX
  8
RA_6120
 62
    11
 10
563686
 20
3252586
  0
VERTEX
  8
RA_6120
 62
    11
 10
563691
 20
3252555
  0
VERTEX
  8
RA_6120
 62
    11
 10
563684
 20
3252538
  0
VERTEX
  8
RA_6120
 62
    11
 10
563633
 20
3252519
  0
VERTEX
  8
RA_6120
 62
    11
 10
563611
 20
3252502
  0
VERTEX
  8
RA_6120
 62
    11
 10
563591
 20
3252506
  0
VERTEX
  8
RA_6120
 62
    11
 10
563565
 20
3252521
  0
VERTEX
  8
RA_6120
 62
    11
 10
563542
 20
3252533
  0
VERTEX
  8
RA_6120
 62
    11
 10
563524
 20
3252534
  0
VERTEX
  8
RA_6120
 62
    11
 10
563506
 20
3252513
  0
VERTEX
  8
RA_6120
 62
    11
 10
563505
 20
3252502
  0
VERTEX
  8
RA_6120
 62
    11
 10
563506
 20
3252484
  0
VERTEX
  8
RA_6120
 62
    11
 10
563515
 20
3252466
  0
VERTEX
  8
RA_6120
 62
    11
 10
563512
 20
3252455
  0
VERTEX
  8
RA_6120
 62
    11
 10
563499
 20
3252449
  0
VERTEX
  8
RA_6120
 62
    11
 10
563474
 20
3252452
  0
VERTEX
  8
RA_6120
 62
    11
 10
563456
 20
3252460
  0
VERTEX
  8
RA_6120
 62
    11
 10
563438
 20
3252464
  0
VERTEX
  8
RA_6120
 62
    11
 10
563432
 20
3252491
  0
VERTEX
  8
RA_6120
 62
    11
 10
563435
 20
3252509
  0
VERTEX
  8
RA_6120
 62
    11
 10
563438
 20
3252521
  0
VERTEX
  8
RA_6120
 62
    11
 10
563428
 20
3252535
  0
VERTEX
  8
RA_6120
 62
    11
 10
563409
 20
3252547
  0
VERTEX
  8
RA_6120
 62
    11
 10
563376
 20
3252556
  0
VERTEX
  8
RA_6120
 62
    11
 10
563358
 20
3252571
  0
VERTEX
  8
RA_6120
 62
    11
 10
563354
 20
3252587
  0
VERTEX
  8
RA_6120
 62
    11
 10
563372
 20
3252601
  0
VERTEX
  8
RA_6120
 62
    11
 10
563399
 20
3252610
  0
VERTEX
  8
RA_6120
 62
    11
 10
563427
 20
3252623
  0
VERTEX
  8
RA_6120
 62
    11
 10
563432
 20
3252647
  0
VERTEX
  8
RA_6120
 62
    11
 10
563419
 20
3252667
  0
VERTEX
  8
RA_6120
 62
    11
 10
563397
 20
3252680
  0
VERTEX
  8
RA_6120
 62
    11
 10
563386
 20
3252683
  0
VERTEX
  8
RA_6120
 62
    11
 10
563317
 20
3252737
  0
VERTEX
  8
RA_6120
 62
    11
 10
563246
 20
3252768
  0
VERTEX
  8
RA_6120
 62
    11
 10
563229
 20
3252790
  0
VERTEX
  8
RA_6120
 62
    11
 10
563217
 20
3252812
  0
VERTEX
  8
RA_6120
 62
    11
 10
563208
 20
3252826
  0
VERTEX
  8
RA_6120
 62
    11
 10
563195
 20
3252838
  0
SEQEND
  0
POLYLINE
  8
RA_6120
  6
CONTINUOUS
 62
    11
 66
     1
  0
VERTEX
  8
RA_6120
 62
    11
 10
537908
 20
3239487
  0
VERTEX
  8
RA_6120
 62
    11
 10
537878
 20
3239535
  0
SEQEND
  0
POLYLINE
  8
RA_6120
  6
CONTINUOUS
 62
    11
 66
     1
  0
VERTEX
  8
RA_6120
 62
    11
 10
553757
 20
3251224
  0
VERTEX
  8
RA_6120
 62
    11
 10
553830
 20
3251158
  0
VERTEX
  8
RA_6120
 62
    11
 10
553761
 20
3251082
  0
VERTEX
  8
RA_6120
 62
    11
 10
553699
 20
3251135
  0
VERTEX
  8
RA_6120
 62
    11
 10
553673
 20
3251160
  0
SEQEND
  0
POLYLINE
  8
RA_6120
  6
CONTINUOUS
 62
    11
 66
     1
  0
VERTEX
  8
RA_6120
 62
    11
 10
534049
 20
3249494
  0
VERTEX
  8
RA_6120
 62
    11
 10
534067
 20
3249468
  0
VERTEX
  8
RA_6120
 62
    11
 10
534082
 20
3249433
  0
SEQEND
  0
POLYLINE
  8
RA_6120
  6
CONTINUOUS
 62
    11
 66
     1
  0
VERTEX
  8
RA_6120
 62
    11
 10
558518
 20
3257991
  0
VERTEX
  8
RA_6120
 62
    11
 10
558630
 20
3257987
  0
VERTEX
  8
RA_6120
 62
    11
 10
558801
 20
3257962
  0
VERTEX
  8
RA_6120
 62
    11
 10
558915
 20
3257949
  0
SEQEND
  0
POLYLINE
  8
RA_6120
  6
CONTINUOUS
 62
    11
 66
     1
  0
VERTEX
  8
RA_6120
 62
    11
 10
557727
 20
3257560
  0
VERTEX
  8
RA_6120
 62
    11
 10
557707
 20
3257627
  0
SEQEND
  0
POLYLINE
  8
RA_6120
  6
CONTINUOUS
 62
    11
 66
     1
  0
VERTEX
  8
RA_6120
 62
    11
 10
557355
 20
3256745
  0
VERTEX
  8
RA_6120
 62
    11
 10
557343
 20
3256789
  0
VERTEX
  8
RA_6120
 62
    11
 10
557338
 20
3256830
  0
VERTEX
  8
RA_6120
 62
    11
 10
557345
 20
3256840
  0
VERTEX
  8
RA_6120
 62
    11
 10
557360
 20
3256838
  0
VERTEX
  8
RA_6120
 62
    11
 10
557375
 20
3256821
  0
VERTEX
  8
RA_6120
 62
    11
 10
557393
 20
3256790
  0
VERTEX
  8
RA_6120
 62
    11
 10
557405
 20
3256760
  0
VERTEX
  8
RA_6120
 62
    11
 10
557417
 20
3256744
  0
VERTEX
  8
RA_6120
 62
    11
 10
557435
 20
3256746
  0
VERTEX
  8
RA_6120
 62
    11
 10
557450
 20
3256753
  0
VERTEX
  8
RA_6120
 62
    11
 10
557476
 20
3256761
  0
VERTEX
  8
RA_6120
 62
    11
 10
557516
 20
3256778
  0
VERTEX
  8
RA_6120
 62
    11
 10
557549
 20
3256782
  0
VERTEX
  8
RA_6120
 62
    11
 10
557586
 20
3256790
  0
VERTEX
  8
RA_6120
 62
    11
 10
557683
 20
3256835
  0
VERTEX
  8
RA_6120
 62
    11
 10
557737
 20
3256845
  0
VERTEX
  8
RA_6120
 62
    11
 10
557782
 20
3256856
  0
VERTEX
  8
RA_6120
 62
    11
 10
557820
 20
3256873
  0
VERTEX
  8
RA_6120
 62
    11
 10
557888
 20
3256906
  0
VERTEX
  8
RA_6120
 62
    11
 10
557902
 20
3256908
  0
VERTEX
  8
RA_6120
 62
    11
 10
557922
 20
3256909
  0
VERTEX
  8
RA_6120
 62
    11
 10
557950
 20
3256917
  0
VERTEX
  8
RA_6120
 62
    11
 10
557978
 20
3256939
  0
VERTEX
  8
RA_6120
 62
    11
 10
558016
 20
3256983
  0
VERTEX
  8
RA_6120
 62
    11
 10
558002
 20
3257010
  0
VERTEX
  8
RA_6120
 62
    11
 10
557974
 20
3257015
  0
VERTEX
  8
RA_6120
 62
    11
 10
557909
 20
3257001
  0
VERTEX
  8
RA_6120
 62
    11
 10
557883
 20
3256995
  0
VERTEX
  8
RA_6120
 62
    11
 10
557857
 20
3256983
  0
VERTEX
  8
RA_6120
 62
    11
 10
557817
 20
3256949
  0
VERTEX
  8
RA_6120
 62
    11
 10
557769
 20
3256923
  0
VERTEX
  8
RA_6120
 62
    11
 10
557731
 20
3256910
  0
VERTEX
  8
RA_6120
 62
    11
 10
557682
 20
3256901
  0
VERTEX
  8
RA_6120
 62
    11
 10
557647
 20
3256896
  0
VERTEX
  8
RA_6120
 62
    11
 10
557637
 20
3256888
  0
VERTEX
  8
RA_6120
 62
    11
 10
557625
 20
3256877
  0
VERTEX
  8
RA_6120
 62
    11
 10
557608
 20
3256884
  0
VERTEX
  8
RA_6120
 62
    11
 10
557590
 20
3256916
  0
VERTEX
  8
RA_6120
 62
    11
 10
557569
 20
3256932
  0
VERTEX
  8
RA_6120
 62
    11
 10
557556
 20
3256956
  0
SEQEND
  0
POLYLINE
  8
RA_6120
  6
CONTINUOUS
 62
    11
 66
     1
  0
VERTEX
  8
RA_6120
 62
    11
 10
557676
 20
3257734
  0
VERTEX
  8
RA_6120
 62
    11
 10
557684
 20
3257752
  0
VERTEX
  8
RA_6120
 62
    11
 10
557701
 20
3257760
  0
VERTEX
  8
RA_6120
 62
    11
 10
557738
 20
3257774
  0
VERTEX
  8
RA_6120
 62
    11
 10
557795
 20
3257781
  0
VERTEX
  8
RA_6120
 62
    11
 10
557820
 20
3257787
  0
VERTEX
  8
RA_6120
 62
    11
 10
557917
 20
3257810
  0
VERTEX
  8
RA_6120
 62
    11
 10
558082
 20
3257852
  0
VERTEX
  8
RA_6120
 62
    11
 10
558143
 20
3257874
  0
VERTEX
  8
RA_6120
 62
    11
 10
558265
 20
3257932
  0
VERTEX
  8
RA_6120
 62
    11
 10
558286
 20
3257939
  0
SEQEND
  0
POLYLINE
  8
RA_6120
  6
CONTINUOUS
 62
    11
 66
     1
  0
VERTEX
  8
RA_6120
 62
    11
 10
533960
 20
3249622
  0
VERTEX
  8
RA_6120
 62
    11
 10
533916
 20
3249631
  0
VERTEX
  8
RA_6120
 62
    11
 10
533891
 20
3249640
  0
VERTEX
  8
RA_6120
 62
    11
 10
533860
 20
3249648
  0
VERTEX
  8
RA_6120
 62
    11
 10
533831
 20
3249646
  0
VERTEX
  8
RA_6120
 62
    11
 10
533782
 20
3249639
  0
VERTEX
  8
RA_6120
 62
    11
 10
533753
 20
3249621
  0
VERTEX
  8
RA_6120
 62
    11
 10
533724
 20
3249601
  0
VERTEX
  8
RA_6120
 62
    11
 10
533685
 20
3249582
  0
VERTEX
  8
RA_6120
 62
    11
 10
533624
 20
3249513
  0
VERTEX
  8
RA_6120
 62
    11
 10
533589
 20
3249484
  0
VERTEX
  8
RA_6120
 62
    11
 10
533542
 20
3249438
  0
VERTEX
  8
RA_6120
 62
    11
 10
533514
 20
3249419
  0
VERTEX
  8
RA_6120
 62
    11
 10
533484
 20
3249392
  0
VERTEX
  8
RA_6120
 62
    11
 10
533469
 20
3249388
  0
VERTEX
  8
RA_6120
 62
    11
 10
533457
 20
3249386
  0
VERTEX
  8
RA_6120
 62
    11
 10
533414
 20
3249404
  0
VERTEX
  8
RA_6120
 62
    11
 10
533372
 20
3249425
  0
VERTEX
  8
RA_6120
 62
    11
 10
533343
 20
3249439
  0
VERTEX
  8
RA_6120
 62
    11
 10
533301.0001
 20
3249447
  0
VERTEX
  8
RA_6120
 62
    11
 10
533267.0001
 20
3249442
  0
VERTEX
  8
RA_6120
 62
    11
 10
533251.0001
 20
3249448
  0
VERTEX
  8
RA_6120
 62
    11
 10
533231
 20
3249490
  0
VERTEX
  8
RA_6120
 62
    11
 10
533227
 20
3249509
  0
VERTEX
  8
RA_6120
 62
    11
 10
533259.0001
 20
3249574
  0
VERTEX
  8
RA_6120
 62
    11
 10
533281.0001
 20
3249605
  0
VERTEX
  8
RA_6120
 62
    11
 10
533281.0001
 20
3249904
  0
VERTEX
  8
RA_6120
 62
    11
 10
533331
 20
3249920
  0
VERTEX
  8
RA_6120
 62
    11
 10
533323.0001
 20
3249956
  0
VERTEX
  8
RA_6120
 62
    11
 10
533416
 20
3249971
  0
VERTEX
  8
RA_6120
 62
    11
 10
533472
 20
3249976
  0
VERTEX
  8
RA_6120
 62
    11
 10
533512
 20
3249905
  0
VERTEX
  8
RA_6120
 62
    11
 10
533542
 20
3249904
  0
VERTEX
  8
RA_6120
 62
    11
 10
533560
 20
3249932
  0
VERTEX
  8
RA_6120
 62
    11
 10
533589
 20
3249929
  0
VERTEX
  8
RA_6120
 62
    11
 10
533622
 20
3249929
  0
VERTEX
  8
RA_6120
 62
    11
 10
533649
 20
3249949
  0
VERTEX
  8
RA_6120
 62
    11
 10
533667
 20
3249970
  0
VERTEX
  8
RA_6120
 62
    11
 10
533691
 20
3249968
  0
VERTEX
  8
RA_6120
 62
    11
 10
533719
 20
3249941
  0
VERTEX
  8
RA_6120
 62
    11
 10
533742
 20
3249901
  0
VERTEX
  8
RA_6120
 62
    11
 10
533767
 20
3249874
  0
VERTEX
  8
RA_6120
 62
    11
 10
533803
 20
3249851
  0
VERTEX
  8
RA_6120
 62
    11
 10
533835
 20
3249829
  0
VERTEX
  8
RA_6120
 62
    11
 10
533856
 20
3249802
  0
VERTEX
  8
RA_6120
 62
    11
 10
533878
 20
3249761
  0
VERTEX
  8
RA_6120
 62
    11
 10
533898
 20
3249740
  0
VERTEX
  8
RA_6120
 62
    11
 10
533925
 20
3249736
  0
VERTEX
  8
RA_6120
 62
    11
 10
533942
 20
3249754
  0
VERTEX
  8
RA_6120
 62
    11
 10
533964
 20
3249778
  0
VERTEX
  8
RA_6120
 62
    11
 10
533988
 20
3249827
  0
VERTEX
  8
RA_6120
 62
    11
 10
534012
 20
3249856
  0
VERTEX
  8
RA_6120
 62
    11
 10
534024
 20
3249896
  0
VERTEX
  8
RA_6120
 62
    11
 10
534037
 20
3249922
  0
VERTEX
  8
RA_6120
 62
    11
 10
534051
 20
3249934
  0
VERTEX
  8
RA_6120
 62
    11
 10
534049
 20
3249950
  0
VERTEX
  8
RA_6120
 62
    11
 10
534043
 20
3249973
  0
VERTEX
  8
RA_6120
 62
    11
 10
534046
 20
3249983
  0
VERTEX
  8
RA_6120
 62
    11
 10
534054
 20
3250001
  0
VERTEX
  8
RA_6120
 62
    11
 10
534055
 20
3250024
  0
VERTEX
  8
RA_6120
 62
    11
 10
534268
 20
3250031
  0
SEQEND
  0
POLYLINE
  8
RA_6120
  6
CONTINUOUS
 62
    11
 66
     1
  0
VERTEX
  8
RA_6120
 62
    11
 10
534159
 20
3249856
  0
VERTEX
  8
RA_6120
 62
    11
 10
534210
 20
3249853
  0
VERTEX
  8
RA_6120
 62
    11
 10
534274
 20
3249854
  0
VERTEX
  8
RA_6120
 62
    11
 10
534316
 20
3249845
  0
VERTEX
  8
RA_6120
 62
    11
 10
534342
 20
3249825
  0
VERTEX
  8
RA_6120
 62
    11
 10
534371
 20
3249803
  0
SEQEND
  0
POLYLINE
  8
RA_6120
  6
CONTINUOUS
 62
    11
 66
     1
  0
VERTEX
  8
RA_6120
 62
    11
 10
554118
 20
3251026
  0
VERTEX
  8
RA_6120
 62
    11
 10
554119
 20
3250990
  0
VERTEX
  8
RA_6120
 62
    11
 10
554103
 20
3250973
  0
VERTEX
  8
RA_6120
 62
    11
 10
554069
 20
3250945
  0
VERTEX
  8
RA_6120
 62
    11
 10
553994
 20
3250873
  0
VERTEX
  8
RA_6120
 62
    11
 10
553956
 20
3250846
  0
VERTEX
  8
RA_6120
 62
    11
 10
553929
 20
3250862
  0
VERTEX
  8
RA_6120
 62
    11
 10
553886
 20
3250884
  0
VERTEX
  8
RA_6120
 62
    11
 10
553868
 20
3250893
  0
VERTEX
  8
RA_6120
 62
    11
 10
553793
 20
3250914
  0
VERTEX
  8
RA_6120
 62
    11
 10
553761
 20
3250924
  0
VERTEX
  8
RA_6120
 62
    11
 10
553696
 20
3250953
  0
VERTEX
  8
RA_6120
 62
    11
 10
553695
 20
3250971
  0
VERTEX
  8
RA_6120
 62
    11
 10
553709
 20
3250995
  0
SEQEND
  0
POLYLINE
  8
RA_6120
  6
CONTINUOUS
 62
    11
 66
     1
  0
VERTEX
  8
RA_6120
 62
    11
 10
562301
 20
3256367
  0
VERTEX
  8
RA_6120
 62
    11
 10
562310
 20
3256396
  0
VERTEX
  8
RA_6120
 62
    11
 10
562316
 20
3256415
  0
SEQEND
  0
POLYLINE
  8
RA_6120
  6
CONTINUOUS
 62
    11
 66
     1
  0
VERTEX
  8
RA_6120
 62
    11
 10
537028
 20
3239631
  0
VERTEX
  8
RA_6120
 62
    11
 10
537030
 20
3239604
  0
VERTEX
  8
RA_6120
 62
    11
 10
537008
 20
3239525
  0
VERTEX
  8
RA_6120
 62
    11
 10
536990
 20
3239435
  0
VERTEX
  8
RA_6120
 62
    11
 10
536989
 20
3239409
  0
VERTEX
  8
RA_6120
 62
    11
 10
536994
 20
3239386
  0
VERTEX
  8
RA_6120
 62
    11
 10
537028
 20
3239339
  0
VERTEX
  8
RA_6120
 62
    11
 10
537041
 20
3239311
  0
VERTEX
  8
RA_6120
 62
    11
 10
537056
 20
3239287
  0
VERTEX
  8
RA_6120
 62
    11
 10
537073
 20
3239292
  0
VERTEX
  8
RA_6120
 62
    11
 10
537094
 20
3239306
  0
VERTEX
  8
RA_6120
 62
    11
 10
537142
 20
3239344
  0
VERTEX
  8
RA_6120
 62
    11
 10
537164
 20
3239358
  0
VERTEX
  8
RA_6120
 62
    11
 10
537184
 20
3239357
  0
VERTEX
  8
RA_6120
 62
    11
 10
537196
 20
3239342
  0
VERTEX
  8
RA_6120
 62
    11
 10
537289
 20
3239187
  0
VERTEX
  8
RA_6120
 62
    11
 10
537316
 20
3239149
  0
VERTEX
  8
RA_6120
 62
    11
 10
537326
 20
3239122
  0
VERTEX
  8
RA_6120
 62
    11
 10
537340
 20
3239107
  0
VERTEX
  8
RA_6120
 62
    11
 10
537365
 20
3239114
  0
VERTEX
  8
RA_6120
 62
    11
 10
537386
 20
3239111
  0
VERTEX
  8
RA_6120
 62
    11
 10
537393
 20
3239097
  0
VERTEX
  8
RA_6120
 62
    11
 10
537383
 20
3239079
  0
VERTEX
  8
RA_6120
 62
    11
 10
537373
 20
3239057
  0
VERTEX
  8
RA_6120
 62
    11
 10
537396
 20
3239021
  0
VERTEX
  8
RA_6120
 62
    11
 10
537387
 20
3239007
  0
VERTEX
  8
RA_6120
 62
    11
 10
537357
 20
3238989
  0
VERTEX
  8
RA_6120
 62
    11
 10
537324
 20
3238962
  0
VERTEX
  8
RA_6120
 62
    11
 10
537280
 20
3238937
  0
VERTEX
  8
RA_6120
 62
    11
 10
537250
 20
3238925
  0
VERTEX
  8
RA_6120
 62
    11
 10
537227
 20
3238926
  0
VERTEX
  8
RA_6120
 62
    11
 10
537212
 20
3238938
  0
VERTEX
  8
RA_6120
 62
    11
 10
537215
 20
3238957
  0
VERTEX
  8
RA_6120
 62
    11
 10
537233
 20
3238996
  0
VERTEX
  8
RA_6120
 62
    11
 10
537239
 20
3239023
  0
VERTEX
  8
RA_6120
 62
    11
 10
537217
 20
3239068
  0
VERTEX
  8
RA_6120
 62
    11
 10
537204
 20
3239087
  0
VERTEX
  8
RA_6120
 62
    11
 10
537188
 20
3239111
  0
VERTEX
  8
RA_6120
 62
    11
 10
537172
 20
3239127
  0
VERTEX
  8
RA_6120
 62
    11
 10
537140
 20
3239114
  0
VERTEX
  8
RA_6120
 62
    11
 10
537121
 20
3239089
  0
VERTEX
  8
RA_6120
 62
    11
 10
537114
 20
3239063
  0
VERTEX
  8
RA_6120
 62
    11
 10
537110
 20
3239027
  0
VERTEX
  8
RA_6120
 62
    11
 10
537093
 20
3238988
  0
VERTEX
  8
RA_6120
 62
    11
 10
537085
 20
3238978
  0
VERTEX
  8
RA_6120
 62
    11
 10
537070
 20
3238963
  0
VERTEX
  8
RA_6120
 62
    11
 10
537071
 20
3238939
  0
VERTEX
  8
RA_6120
 62
    11
 10
537065
 20
3238893
  0
VERTEX
  8
RA_6120
 62
    11
 10
537054
 20
3238873
  0
VERTEX
  8
RA_6120
 62
    11
 10
537060
 20
3238855
  0
VERTEX
  8
RA_6120
 62
    11
 10
537082
 20
3238853
  0
VERTEX
  8
RA_6120
 62
    11
 10
537109
 20
3238861
  0
VERTEX
  8
RA_6120
 62
    11
 10
537127
 20
3238839
  0
VERTEX
  8
RA_6120
 62
    11
 10
537131
 20
3238811
  0
VERTEX
  8
RA_6120
 62
    11
 10
537125
 20
3238780
  0
VERTEX
  8
RA_6120
 62
    11
 10
537094
 20
3238767
  0
VERTEX
  8
RA_6120
 62
    11
 10
537072
 20
3238750
  0
VERTEX
  8
RA_6120
 62
    11
 10
537069
 20
3238718
  0
VERTEX
  8
RA_6120
 62
    11
 10
537075
 20
3238688
  0
VERTEX
  8
RA_6120
 62
    11
 10
537092
 20
3238661
  0
VERTEX
  8
RA_6120
 62
    11
 10
537097
 20
3238636
  0
VERTEX
  8
RA_6120
 62
    11
 10
537103
 20
3238607
  0
VERTEX
  8
RA_6120
 62
    11
 10
537123
 20
3238504
  0
VERTEX
  8
RA_6120
 62
    11
 10
537131
 20
3238476
  0
VERTEX
  8
RA_6120
 62
    11
 10
537148
 20
3238439
  0
VERTEX
  8
RA_6120
 62
    11
 10
537164
 20
3238423
  0
VERTEX
  8
RA_6120
 62
    11
 10
537182
 20
3238428
  0
VERTEX
  8
RA_6120
 62
    11
 10
537214
 20
3238461
  0
VERTEX
  8
RA_6120
 62
    11
 10
537248
 20
3238485
  0
VERTEX
  8
RA_6120
 62
    11
 10
537272
 20
3238500
  0
VERTEX
  8
RA_6120
 62
    11
 10
537283
 20
3238527
  0
VERTEX
  8
RA_6120
 62
    11
 10
537299
 20
3238549
  0
VERTEX
  8
RA_6120
 62
    11
 10
537309
 20
3238575
  0
VERTEX
  8
RA_6120
 62
    11
 10
537330
 20
3238594
  0
VERTEX
  8
RA_6120
 62
    11
 10
537348
 20
3238611
  0
VERTEX
  8
RA_6120
 62
    11
 10
537353
 20
3238646
  0
VERTEX
  8
RA_6120
 62
    11
 10
537364
 20
3238675
  0
VERTEX
  8
RA_6120
 62
    11
 10
537382
 20
3238706
  0
VERTEX
  8
RA_6120
 62
    11
 10
537386
 20
3238721
  0
VERTEX
  8
RA_6120
 62
    11
 10
537380
 20
3238738
  0
VERTEX
  8
RA_6120
 62
    11
 10
537386
 20
3238756
  0
VERTEX
  8
RA_6120
 62
    11
 10
537417
 20
3238782
  0
VERTEX
  8
RA_6120
 62
    11
 10
537438
 20
3238798
  0
VERTEX
  8
RA_6120
 62
    11
 10
537459
 20
3238799
  0
VERTEX
  8
RA_6120
 62
    11
 10
537476
 20
3238779
  0
VERTEX
  8
RA_6120
 62
    11
 10
537494
 20
3238766
  0
VERTEX
  8
RA_6120
 62
    11
 10
537538
 20
3238804
  0
VERTEX
  8
RA_6120
 62
    11
 10
537575
 20
3238840
  0
VERTEX
  8
RA_6120
 62
    11
 10
537591
 20
3238859
  0
VERTEX
  8
RA_6120
 62
    11
 10
537543
 20
3238912
  0
VERTEX
  8
RA_6120
 62
    11
 10
537536
 20
3238943
  0
VERTEX
  8
RA_6120
 62
    11
 10
537548
 20
3238962
  0
VERTEX
  8
RA_6120
 62
    11
 10
537558
 20
3238969
  0
VERTEX
  8
RA_6120
 62
    11
 10
537581
 20
3238963
  0
VERTEX
  8
RA_6120
 62
    11
 10
537593
 20
3238960
  0
VERTEX
  8
RA_6120
 62
    11
 10
537614
 20
3238966
  0
VERTEX
  8
RA_6120
 62
    11
 10
537623
 20
3238980
  0
VERTEX
  8
RA_6120
 62
    11
 10
537623
 20
3239019
  0
VERTEX
  8
RA_6120
 62
    11
 10
537628
 20
3239065
  0
VERTEX
  8
RA_6120
 62
    11
 10
537622
 20
3239103
  0
VERTEX
  8
RA_6120
 62
    11
 10
537608
 20
3239134
  0
VERTEX
  8
RA_6120
 62
    11
 10
537602
 20
3239151
  0
VERTEX
  8
RA_6120
 62
    11
 10
537609
 20
3239168
  0
VERTEX
  8
RA_6120
 62
    11
 10
537630
 20
3239190
  0
VERTEX
  8
RA_6120
 62
    11
 10
537649
 20
3239196
  0
VERTEX
  8
RA_6120
 62
    11
 10
537669
 20
3239185
  0
VERTEX
  8
RA_6120
 62
    11
 10
537687
 20
3239181
  0
VERTEX
  8
RA_6120
 62
    11
 10
537711
 20
3239174
  0
VERTEX
  8
RA_6120
 62
    11
 10
537738
 20
3239172
  0
VERTEX
  8
RA_6120
 62
    11
 10
537780
 20
3239168
  0
VERTEX
  8
RA_6120
 62
    11
 10
537803
 20
3239179
  0
VERTEX
  8
RA_6120
 62
    11
 10
537829
 20
3239221
  0
VERTEX
  8
RA_6120
 62
    11
 10
537834
 20
3239253
  0
VERTEX
  8
RA_6120
 62
    11
 10
537836
 20
3239298
  0
VERTEX
  8
RA_6120
 62
    11
 10
537822
 20
3239322
  0
VERTEX
  8
RA_6120
 62
    11
 10
537797
 20
3239343
  0
VERTEX
  8
RA_6120
 62
    11
 10
537772
 20
3239360
  0
VERTEX
  8
RA_6120
 62
    11
 10
537741
 20
3239375
  0
VERTEX
  8
RA_6120
 62
    11
 10
537716
 20
3239396
  0
VERTEX
  8
RA_6120
 62
    11
 10
537701
 20
3239418
  0
VERTEX
  8
RA_6120
 62
    11
 10
537707
 20
3239437
  0
VERTEX
  8
RA_6120
 62
    11
 10
537727
 20
3239456
  0
VERTEX
  8
RA_6120
 62
    11
 10
537750
 20
3239480
  0
VERTEX
  8
RA_6120
 62
    11
 10
537774
 20
3239497
  0
VERTEX
  8
RA_6120
 62
    11
 10
537801
 20
3239505
  0
VERTEX
  8
RA_6120
 62
    11
 10
537826
 20
3239517
  0
VERTEX
  8
RA_6120
 62
    11
 10
537852
 20
3239529
  0
VERTEX
  8
RA_6120
 62
    11
 10
537878
 20
3239535
  0
SEQEND
  0
POLYLINE
  8
RA_6120
  6
CONTINUOUS
 62
    11
 66
     1
  0
VERTEX
  8
RA_6120
 62
    11
 10
562660
 20
3254825
  0
VERTEX
  8
RA_6120
 62
    11
 10
562670
 20
3254809
  0
VERTEX
  8
RA_6120
 62
    11
 10
562698
 20
3254773
  0
VERTEX
  8
RA_6120
 62
    11
 10
562718
 20
3254737
  0
VERTEX
  8
RA_6120
 62
    11
 10
562744
 20
3254684
  0
VERTEX
  8
RA_6120
 62
    11
 10
562759
 20
3254623
  0
VERTEX
  8
RA_6120
 62
    11
 10
562777
 20
3254580
  0
VERTEX
  8
RA_6120
 62
    11
 10
562789
 20
3254561
  0
SEQEND
  0
POLYLINE
  8
RA_6120
  6
CONTINUOUS
 62
    11
 66
     1
  0
VERTEX
  8
RA_6120
 62
    11
 10
562892
 20
3254339
  0
VERTEX
  8
RA_6120
 62
    11
 10
562983
 20
3254264
  0
VERTEX
  8
RA_6120
 62
    11
 10
563010
 20
3254232
  0
VERTEX
  8
RA_6120
 62
    11
 10
563018
 20
3254217
  0
VERTEX
  8
RA_6120
 62
    11
 10
563023
 20
3254201
  0
SEQEND
  0
POLYLINE
  8
RA_6120
  6
CONTINUOUS
 62
    11
 66
     1
  0
VERTEX
  8
RA_6120
 62
    11
 10
534211
 20
3249596
  0
VERTEX
  8
RA_6120
 62
    11
 10
534223
 20
3249617
  0
VERTEX
  8
RA_6120
 62
    11
 10
534280
 20
3249678
  0
VERTEX
  8
RA_6120
 62
    11
 10
534303
 20
3249705
  0
VERTEX
  8
RA_6120
 62
    11
 10
534319
 20
3249738
  0
VERTEX
  8
RA_6120
 62
    11
 10
534348
 20
3249776
  0
VERTEX
  8
RA_6120
 62
    11
 10
534364
 20
3249794
  0
VERTEX
  8
RA_6120
 62
    11
 10
534371
 20
3249803
  0
SEQEND
  0
POLYLINE
  8
RA_6120
  6
CONTINUOUS
 62
    11
 66
     1
  0
VERTEX
  8
RA_6120
 62
    11
 10
537407
 20
3240029
  0
VERTEX
  8
RA_6120
 62
    11
 10
537418
 20
3240006
  0
VERTEX
  8
RA_6120
 62
    11
 10
537415
 20
3239989
  0
VERTEX
  8
RA_6120
 62
    11
 10
537402
 20
3239962
  0
VERTEX
  8
RA_6120
 62
    11
 10
537384
 20
3239935
  0
VERTEX
  8
RA_6120
 62
    11
 10
537360
 20
3239912
  0
VERTEX
  8
RA_6120
 62
    11
 10
537363
 20
3239890
  0
VERTEX
  8
RA_6120
 62
    11
 10
537370
 20
3239874
  0
VERTEX
  8
RA_6120
 62
    11
 10
537362
 20
3239836
  0
VERTEX
  8
RA_6120
 62
    11
 10
537357
 20
3239801
  0
VERTEX
  8
RA_6120
 62
    11
 10
537358
 20
3239757
  0
VERTEX
  8
RA_6120
 62
    11
 10
537343
 20
3239736
  0
VERTEX
  8
RA_6120
 62
    11
 10
537330
 20
3239713
  0
VERTEX
  8
RA_6120
 62
    11
 10
537330
 20
3239684
  0
VERTEX
  8
RA_6120
 62
    11
 10
537332
 20
3239661
  0
VERTEX
  8
RA_6120
 62
    11
 10
537344
 20
3239642
  0
VERTEX
  8
RA_6120
 62
    11
 10
537364
 20
3239652
  0
VERTEX
  8
RA_6120
 62
    11
 10
537439
 20
3239705
  0
VERTEX
  8
RA_6120
 62
    11
 10
537462
 20
3239721
  0
VERTEX
  8
RA_6120
 62
    11
 10
537473
 20
3239740
  0
VERTEX
  8
RA_6120
 62
    11
 10
537451
 20
3239774
  0
VERTEX
  8
RA_6120
 62
    11
 10
537453
 20
3239792
  0
VERTEX
  8
RA_6120
 62
    11
 10
537485
 20
3239824
  0
VERTEX
  8
RA_6120
 62
    11
 10
537508
 20
3239838
  0
VERTEX
  8
RA_6120
 62
    11
 10
537528
 20
3239834
  0
VERTEX
  8
RA_6120
 62
    11
 10
537563
 20
3239778
  0
VERTEX
  8
RA_6120
 62
    11
 10
537582
 20
3239759
  0
VERTEX
  8
RA_6120
 62
    11
 10
537602
 20
3239768
  0
VERTEX
  8
RA_6120
 62
    11
 10
537658
 20
3239804
  0
VERTEX
  8
RA_6120
 62
    11
 10
537687
 20
3239817
  0
VERTEX
  8
RA_6120
 62
    11
 10
537719
 20
3239823
  0
SEQEND
  0
POLYLINE
  8
RA_6120
  6
CONTINUOUS
 62
    11
 66
     1
  0
VERTEX
  8
RA_6120
 62
    11
 10
553912
 20
3251000
  0
VERTEX
  8
RA_6120
 62
    11
 10
554050
 20
3251027
  0
VERTEX
  8
RA_6120
 62
    11
 10
554095
 20
3251029
  0
VERTEX
  8
RA_6120
 62
    11
 10
554118
 20
3251026
  0
SEQEND
  0
POLYLINE
  8
RA_6120
  6
CONTINUOUS
 62
    11
 66
     1
  0
VERTEX
  8
RA_6120
 62
    11
 10
538086
 20
3240022
  0
VERTEX
  8
RA_6120
 62
    11
 10
538151
 20
3240012
  0
VERTEX
  8
RA_6120
 62
    11
 10
538272
 20
3240003
  0
VERTEX
  8
RA_6120
 62
    11
 10
538370
 20
3239991
  0
VERTEX
  8
RA_6120
 62
    11
 10
538408
 20
3239986
  0
SEQEND
  0
POLYLINE
  8
RA_6120
  6
CONTINUOUS
 62
    11
 66
     1
  0
VERTEX
  8
RA_6120
 62
    11
 10
558286
 20
3257939
  0
VERTEX
  8
RA_6120
 62
    11
 10
558299
 20
3257919
  0
VERTEX
  8
RA_6120
 62
    11
 10
558333
 20
3257864
  0
VERTEX
  8
RA_6120
 62
    11
 10
558372
 20
3257797
  0
VERTEX
  8
RA_6120
 62
    11
 10
558388
 20
3257779
  0
VERTEX
  8
RA_6120
 62
    11
 10
558423
 20
3257782
  0
VERTEX
  8
RA_6120
 62
    11
 10
558463
 20
3257801
  0
VERTEX
  8
RA_6120
 62
    11
 10
558498
 20
3257819
  0
VERTEX
  8
RA_6120
 62
    11
 10
558562
 20
3257848
  0
VERTEX
  8
RA_6120
 62
    11
 10
558591
 20
3257859
  0
VERTEX
  8
RA_6120
 62
    11
 10
558618
 20
3257877
  0
VERTEX
  8
RA_6120
 62
    11
 10
558627
 20
3257897
  0
VERTEX
  8
RA_6120
 62
    11
 10
558627
 20
3257899
  0
VERTEX
  8
RA_6120
 62
    11
 10
558613
 20
3257945
  0
VERTEX
  8
RA_6120
 62
    11
 10
558599
 20
3257946
  0
VERTEX
  8
RA_6120
 62
    11
 10
558583
 20
3257940
  0
VERTEX
  8
RA_6120
 62
    11
 10
558565
 20
3257929
  0
VERTEX
  8
RA_6120
 62
    11
 10
558518
 20
3257928
  0
VERTEX
  8
RA_6120
 62
    11
 10
558503
 20
3257934
  0
VERTEX
  8
RA_6120
 62
    11
 10
558495
 20
3257949
  0
VERTEX
  8
RA_6120
 62
    11
 10
558504
 20
3257967
  0
VERTEX
  8
RA_6120
 62
    11
 10
558518
 20
3257991
  0
SEQEND
  0
POLYLINE
  8
RA_6120
  6
CONTINUOUS
 62
    11
 66
     1
  0
VERTEX
  8
RA_6120
 62
    11
 10
533960
 20
3249622
  0
VERTEX
  8
RA_6120
 62
    11
 10
533995
 20
3249607
  0
VERTEX
  8
RA_6120
 62
    11
 10
534022
 20
3249586
  0
VERTEX
  8
RA_6120
 62
    11
 10
534044
 20
3249522
  0
VERTEX
  8
RA_6120
 62
    11
 10
534049
 20
3249494
  0
SEQEND
  0
POLYLINE
  8
RA_6120
  6
CONTINUOUS
 62
    11
 66
     1
  0
VERTEX
  8
RA_6120
 62
    11
 10
562301
 20
3256367
  0
VERTEX
  8
RA_6120
 62
    11
 10
562314
 20
3256367
  0
VERTEX
  8
RA_6120
 62
    11
 10
562327
 20
3256373
  0
VERTEX
  8
RA_6120
 62
    11
 10
562358
 20
3256363
  0
VERTEX
  8
RA_6120
 62
    11
 10
562378
 20
3256315
  0
VERTEX
  8
RA_6120
 62
    11
 10
562410
 20
3256219
  0
VERTEX
  8
RA_6120
 62
    11
 10
562431
 20
3256179
  0
VERTEX
  8
RA_6120
 62
    11
 10
562445
 20
3256159
  0
VERTEX
  8
RA_6120
 62
    11
 10
562480
 20
3256110
  0
VERTEX
  8
RA_6120
 62
    11
 10
562504
 20
3256085
  0
VERTEX
  8
RA_6120
 62
    11
 10
562522
 20
3256077
  0
VERTEX
  8
RA_6120
 62
    11
 10
562612
 20
3256102
  0
VERTEX
  8
RA_6120
 62
    11
 10
562652
 20
3256109
  0
VERTEX
  8
RA_6120
 62
    11
 10
562696
 20
3256115
  0
VERTEX
  8
RA_6120
 62
    11
 10
562785
 20
3256131
  0
VERTEX
  8
RA_6120
 62
    11
 10
562800
 20
3256148
  0
VERTEX
  8
RA_6120
 62
    11
 10
562797
 20
3256169
  0
VERTEX
  8
RA_6120
 62
    11
 10
562772
 20
3256233
  0
VERTEX
  8
RA_6120
 62
    11
 10
562760
 20
3256246
  0
VERTEX
  8
RA_6120
 62
    11
 10
562749
 20
3256258
  0
SEQEND
  0
POLYLINE
  8
RA_6120
  6
CONTINUOUS
 62
    11
 66
     1
  0
VERTEX
  8
RA_6120
 62
    11
 10
538737
 20
3241219
  0
VERTEX
  8
RA_6120
 62
    11
 10
538911
 20
3241358
  0
VERTEX
  8
RA_6120
 62
    11
 10
538980
 20
3241454
  0
SEQEND
  0
POLYLINE
  8
RA_6120
  6
CONTINUOUS
 62
    11
 66
     1
  0
VERTEX
  8
RA_6120
 62
    11
 10
553903
 20
3251730
  0
VERTEX
  8
RA_6120
 62
    11
 10
553941
 20
3251778
  0
VERTEX
  8
RA_6120
 62
    11
 10
553995
 20
3251857
  0
VERTEX
  8
RA_6120
 62
    11
 10
554017
 20
3251897
  0
VERTEX
  8
RA_6120
 62
    11
 10
554024
 20
3251928
  0
SEQEND
  0
POLYLINE
  8
RA_6120
  6
CONTINUOUS
 62
    11
 66
     1
  0
VERTEX
  8
RA_6120
 62
    11
 10
562497
 20
3256503
  0
VERTEX
  8
RA_6120
 62
    11
 10
562492
 20
3256501
  0
VERTEX
  8
RA_6120
 62
    11
 10
562450
 20
3256474
  0
VERTEX
  8
RA_6120
 62
    11
 10
562402
 20
3256447
  0
VERTEX
  8
RA_6120
 62
    11
 10
562365
 20
3256430
  0
VERTEX
  8
RA_6120
 62
    11
 10
562321
 20
3256416
  0
VERTEX
  8
RA_6120
 62
    11
 10
562316
 20
3256415
  0
SEQEND
  0
POLYLINE
  8
RA_6120
  6
CONTINUOUS
 62
    11
 66
     1
  0
VERTEX
  8
RA_6120
 62
    11
 10
537028
 20
3239631
  0
VERTEX
  8
RA_6120
 62
    11
 10
537038
 20
3239651
  0
VERTEX
  8
RA_6120
 62
    11
 10
537065
 20
3239703
  0
VERTEX
  8
RA_6120
 62
    11
 10
537107
 20
3239758
  0
VERTEX
  8
RA_6120
 62
    11
 10
537141
 20
3239797
  0
SEQEND
  0
POLYLINE
  8
RA_6120
  6
CONTINUOUS
 62
    11
 66
     1
  0
VERTEX
  8
RA_6120
 62
    11
 10
562789
 20
3254561
  0
VERTEX
  8
RA_6120
 62
    11
 10
562784
 20
3254538
  0
VERTEX
  8
RA_6120
 62
    11
 10
562781
 20
3254521
  0
VERTEX
  8
RA_6120
 62
    11
 10
562796
 20
3254513
  0
VERTEX
  8
RA_6120
 62
    11
 10
562817
 20
3254524
  0
VERTEX
  8
RA_6120
 62
    11
 10
562830
 20
3254534
  0
VERTEX
  8
RA_6120
 62
    11
 10
562843
 20
3254526
  0
VERTEX
  8
RA_6120
 62
    11
 10
562850
 20
3254507
  0
VERTEX
  8
RA_6120
 62
    11
 10
562849
 20
3254490
  0
VERTEX
  8
RA_6120
 62
    11
 10
562832
 20
3254473
  0
VERTEX
  8
RA_6120
 62
    11
 10
562814
 20
3254459
  0
VERTEX
  8
RA_6120
 62
    11
 10
562804
 20
3254444
  0
VERTEX
  8
RA_6120
 62
    11
 10
562803
 20
3254424
  0
VERTEX
  8
RA_6120
 62
    11
 10
562812
 20
3254405
  0
VERTEX
  8
RA_6120
 62
    11
 10
562829
 20
3254380
  0
VERTEX
  8
RA_6120
 62
    11
 10
562844
 20
3254375
  0
VERTEX
  8
RA_6120
 62
    11
 10
562854
 20
3254384
  0
VERTEX
  8
RA_6120
 62
    11
 10
562864
 20
3254407
  0
VERTEX
  8
RA_6120
 62
    11
 10
562874
 20
3254434
  0
VERTEX
  8
RA_6120
 62
    11
 10
562887
 20
3254439
  0
VERTEX
  8
RA_6120
 62
    11
 10
562899
 20
3254426
  0
VERTEX
  8
RA_6120
 62
    11
 10
562907
 20
3254392
  0
VERTEX
  8
RA_6120
 62
    11
 10
562905
 20
3254357
  0
VERTEX
  8
RA_6120
 62
    11
 10
562892
 20
3254339
  0
SEQEND
  0
POLYLINE
  8
RA_6120
  6
CONTINUOUS
 62
    11
 66
     1
  0
VERTEX
  8
RA_6120
 62
    11
 10
554024
 20
3251928
  0
VERTEX
  8
RA_6120
 62
    11
 10
554048
 20
3251940
  0
VERTEX
  8
RA_6120
 62
    11
 10
554079
 20
3251953
  0
VERTEX
  8
RA_6120
 62
    11
 10
554108
 20
3251957
  0
VERTEX
  8
RA_6120
 62
    11
 10
554140
 20
3251961
  0
VERTEX
  8
RA_6120
 62
    11
 10
554159
 20
3251952
  0
VERTEX
  8
RA_6120
 62
    11
 10
554183
 20
3251951
  0
VERTEX
  8
RA_6120
 62
    11
 10
554210
 20
3251958
  0
VERTEX
  8
RA_6120
 62
    11
 10
554237
 20
3251971
  0
VERTEX
  8
RA_6120
 62
    11
 10
554264
 20
3251981
  0
VERTEX
  8
RA_6120
 62
    11
 10
554287
 20
3251992
  0
VERTEX
  8
RA_6120
 62
    11
 10
554321
 20
3252002
  0
VERTEX
  8
RA_6120
 62
    11
 10
554350
 20
3252007
  0
VERTEX
  8
RA_6120
 62
    11
 10
554359
 20
3252005
  0
VERTEX
  8
RA_6120
 62
    11
 10
554363
 20
3251988
  0
VERTEX
  8
RA_6120
 62
    11
 10
554372
 20
3251953
  0
VERTEX
  8
RA_6120
 62
    11
 10
554377
 20
3251935
  0
VERTEX
  8
RA_6120
 62
    11
 10
554388
 20
3251925
  0
VERTEX
  8
RA_6120
 62
    11
 10
554422
 20
3251921
  0
VERTEX
  8
RA_6120
 62
    11
 10
554477
 20
3251915
  0
VERTEX
  8
RA_6120
 62
    11
 10
554580
 20
3251902
  0
VERTEX
  8
RA_6120
 62
    11
 10
554684
 20
3251890
  0
VERTEX
  8
RA_6120
 62
    11
 10
554721
 20
3251882
  0
VERTEX
  8
RA_6120
 62
    11
 10
554843
 20
3251867
  0
VERTEX
  8
RA_6120
 62
    11
 10
554860
 20
3251852
  0
VERTEX
  8
RA_6120
 62
    11
 10
554877
 20
3251835
  0
VERTEX
  8
RA_6120
 62
    11
 10
554891
 20
3251819
  0
VERTEX
  8
RA_6120
 62
    11
 10
554891
 20
3251805
  0
VERTEX
  8
RA_6120
 62
    11
 10
554879
 20
3251787
  0
VERTEX
  8
RA_6120
 62
    11
 10
554846
 20
3251742
  0
VERTEX
  8
RA_6120
 62
    11
 10
554804
 20
3251694
  0
VERTEX
  8
RA_6120
 62
    11
 10
554770
 20
3251648
  0
VERTEX
  8
RA_6120
 62
    11
 10
554733
 20
3251600
  0
VERTEX
  8
RA_6120
 62
    11
 10
554706
 20
3251571
  0
VERTEX
  8
RA_6120
 62
    11
 10
554649
 20
3251515
  0
VERTEX
  8
RA_6120
 62
    11
 10
554550
 20
3251419
  0
VERTEX
  8
RA_6120
 62
    11
 10
554424
 20
3251299
  0
VERTEX
  8
RA_6120
 62
    11
 10
554388
 20
3251262
  0
VERTEX
  8
RA_6120
 62
    11
 10
554371
 20
3251240
  0
VERTEX
  8
RA_6120
 62
    11
 10
554337
 20
3251207
  0
VERTEX
  8
RA_6120
 62
    11
 10
554308
 20
3251179
  0
VERTEX
  8
RA_6120
 62
    11
 10
554266
 20
3251127
  0
VERTEX
  8
RA_6120
 62
    11
 10
554199
 20
3251062
  0
VERTEX
  8
RA_6120
 62
    11
 10
554183
 20
3251051
  0
VERTEX
  8
RA_6120
 62
    11
 10
554161
 20
3251059
  0
VERTEX
  8
RA_6120
 62
    11
 10
554143
 20
3251075
  0
VERTEX
  8
RA_6120
 62
    11
 10
554151
 20
3251100
  0
VERTEX
  8
RA_6120
 62
    11
 10
554145
 20
3251131
  0
VERTEX
  8
RA_6120
 62
    11
 10
554140
 20
3251154
  0
VERTEX
  8
RA_6120
 62
    11
 10
554125
 20
3251184
  0
VERTEX
  8
RA_6120
 62
    11
 10
554126
 20
3251212
  0
VERTEX
  8
RA_6120
 62
    11
 10
554129
 20
3251239
  0
VERTEX
  8
RA_6120
 62
    11
 10
554110
 20
3251258
  0
VERTEX
  8
RA_6120
 62
    11
 10
554094
 20
3251275
  0
VERTEX
  8
RA_6120
 62
    11
 10
554094
 20
3251278
  0
VERTEX
  8
RA_6120
 62
    11
 10
554062
 20
3251331
  0
VERTEX
  8
RA_6120
 62
    11
 10
554044
 20
3251337
  0
VERTEX
  8
RA_6120
 62
    11
 10
554017
 20
3251321
  0
VERTEX
  8
RA_6120
 62
    11
 10
553999
 20
3251299
  0
VERTEX
  8
RA_6120
 62
    11
 10
553960
 20
3251267
  0
VERTEX
  8
RA_6120
 62
    11
 10
553952
 20
3251241
  0
VERTEX
  8
RA_6120
 62
    11
 10
553944
 20
3251217
  0
VERTEX
  8
RA_6120
 62
    11
 10
553945
 20
3251176
  0
VERTEX
  8
RA_6120
 62
    11
 10
553948
 20
3251154
  0
VERTEX
  8
RA_6120
 62
    11
 10
553956
 20
3251139
  0
VERTEX
  8
RA_6120
 62
    11
 10
553977
 20
3251127
  0
VERTEX
  8
RA_6120
 62
    11
 10
554006
 20
3251121
  0
VERTEX
  8
RA_6120
 62
    11
 10
554034
 20
3251109
  0
VERTEX
  8
RA_6120
 62
    11
 10
554056
 20
3251096
  0
VERTEX
  8
RA_6120
 62
    11
 10
554052
 20
3251086
  0
VERTEX
  8
RA_6120
 62
    11
 10
554039
 20
3251082
  0
VERTEX
  8
RA_6120
 62
    11
 10
554009
 20
3251079
  0
VERTEX
  8
RA_6120
 62
    11
 10
553936
 20
3251071
  0
VERTEX
  8
RA_6120
 62
    11
 10
553918
 20
3251058
  0
VERTEX
  8
RA_6120
 62
    11
 10
553917
 20
3251036
  0
VERTEX
  8
RA_6120
 62
    11
 10
553914
 20
3251021
  0
VERTEX
  8
RA_6120
 62
    11
 10
553912
 20
3251000
  0
SEQEND
  0
POLYLINE
  8
RA_6120
  6
CONTINUOUS
 62
    11
 66
     1
  0
VERTEX
  8
RA_6120
 62
    11
 10
537914
 20
3240100
  0
VERTEX
  8
RA_6120
 62
    11
 10
537904
 20
3240164
  0
VERTEX
  8
RA_6120
 62
    11
 10
537899
 20
3240197
  0
VERTEX
  8
RA_6120
 62
    11
 10
537914
 20
3240205
  0
VERTEX
  8
RA_6120
 62
    11
 10
537960
 20
3240220
  0
VERTEX
  8
RA_6120
 62
    11
 10
538021
 20
3240227
  0
VERTEX
  8
RA_6120
 62
    11
 10
538057
 20
3240235
  0
VERTEX
  8
RA_6120
 62
    11
 10
538092
 20
3240249
  0
VERTEX
  8
RA_6120
 62
    11
 10
538120
 20
3240262
  0
VERTEX
  8
RA_6120
 62
    11
 10
538139
 20
3240281
  0
VERTEX
  8
RA_6120
 62
    11
 10
538166
 20
3240296
  0
VERTEX
  8
RA_6120
 62
    11
 10
538274
 20
3240375
  0
VERTEX
  8
RA_6120
 62
    11
 10
538316
 20
3240405
  0
VERTEX
  8
RA_6120
 62
    11
 10
538379
 20
3240471
  0
VERTEX
  8
RA_6120
 62
    11
 10
538467
 20
3240558
  0
VERTEX
  8
RA_6120
 62
    11
 10
538494
 20
3240574
  0
VERTEX
  8
RA_6120
 62
    11
 10
538510
 20
3240578
  0
VERTEX
  8
RA_6120
 62
    11
 10
538520
 20
3240561
  0
VERTEX
  8
RA_6120
 62
    11
 10
538510
 20
3240537
  0
VERTEX
  8
RA_6120
 62
    11
 10
538466
 20
3240497
  0
VERTEX
  8
RA_6120
 62
    11
 10
538462
 20
3240474
  0
VERTEX
  8
RA_6120
 62
    11
 10
538472
 20
3240463
  0
VERTEX
  8
RA_6120
 62
    11
 10
538493
 20
3240458
  0
VERTEX
  8
RA_6120
 62
    11
 10
538508
 20
3240427
  0
VERTEX
  8
RA_6120
 62
    11
 10
538509
 20
3240406
  0
VERTEX
  8
RA_6120
 62
    11
 10
538500
 20
3240389
  0
VERTEX
  8
RA_6120
 62
    11
 10
538484
 20
3240371
  0
VERTEX
  8
RA_6120
 62
    11
 10
538470
 20
3240350
  0
VERTEX
  8
RA_6120
 62
    11
 10
538479
 20
3240330
  0
VERTEX
  8
RA_6120
 62
    11
 10
538502
 20
3240315
  0
VERTEX
  8
RA_6120
 62
    11
 10
538527
 20
3240296
  0
VERTEX
  8
RA_6120
 62
    11
 10
538528
 20
3240277
  0
VERTEX
  8
RA_6120
 62
    11
 10
538503
 20
3240201
  0
VERTEX
  8
RA_6120
 62
    11
 10
538473
 20
3240117
  0
VERTEX
  8
RA_6120
 62
    11
 10
538434
 20
3239995
  0
VERTEX
  8
RA_6120
 62
    11
 10
538408
 20
3239986
  0
SEQEND
  0
POLYLINE
  8
RA_6120
  6
CONTINUOUS
 62
    11
 66
     1
  0
VERTEX
  8
RA_6120
 62
    11
 10
537719
 20
3239823
  0
VERTEX
  8
RA_6120
 62
    11
 10
537731
 20
3239801
  0
VERTEX
  8
RA_6120
 62
    11
 10
537739
 20
3239775
  0
SEQEND
  0
POLYLINE
  8
RA_6120
  6
CONTINUOUS
 62
    11
 66
     1
  0
VERTEX
  8
RA_6120
 62
    11
 10
563023
 20
3254201
  0
VERTEX
  8
RA_6120
 62
    11
 10
563014
 20
3254178
  0
VERTEX
  8
RA_6120
 62
    11
 10
563000
 20
3254165
  0
VERTEX
  8
RA_6120
 62
    11
 10
562961
 20
3254155
  0
VERTEX
  8
RA_6120
 62
    11
 10
562898
 20
3254141
  0
VERTEX
  8
RA_6120
 62
    11
 10
562851
 20
3254123
  0
VERTEX
  8
RA_6120
 62
    11
 10
562789
 20
3254107
  0
VERTEX
  8
RA_6120
 62
    11
 10
562743
 20
3254091
  0
VERTEX
  8
RA_6120
 62
    11
 10
562716
 20
3254097
  0
VERTEX
  8
RA_6120
 62
    11
 10
562701
 20
3254114
  0
VERTEX
  8
RA_6120
 62
    11
 10
562689
 20
3254145
  0
VERTEX
  8
RA_6120
 62
    11
 10
562676
 20
3254207
  0
VERTEX
  8
RA_6120
 62
    11
 10
562644
 20
3254282
  0
VERTEX
  8
RA_6120
 62
    11
 10
562646
 20
3254313
  0
VERTEX
  8
RA_6120
 62
    11
 10
562646
 20
3254369
  0
VERTEX
  8
RA_6120
 62
    11
 10
562627
 20
3254467
  0
VERTEX
  8
RA_6120
 62
    11
 10
562615
 20
3254483
  0
VERTEX
  8
RA_6120
 62
    11
 10
562590
 20
3254507
  0
SEQEND
  0
POLYLINE
  8
RA_6120
  6
CONTINUOUS
 62
    11
 66
     1
  0
VERTEX
  8
RA_6120
 62
    11
 10
562470
 20
3254688
  0
VERTEX
  8
RA_6120
 62
    11
 10
562532
 20
3254594
  0
VERTEX
  8
RA_6120
 62
    11
 10
562590
 20
3254507
  0
SEQEND
  0
POLYLINE
  8
RA_6120
  6
CONTINUOUS
 62
    11
 66
     1
  0
VERTEX
  8
RA_6120
 62
    11
 10
562179
 20
3263165
  0
VERTEX
  8
RA_6120
 62
    11
 10
562161
 20
3263189
  0
VERTEX
  8
RA_6120
 62
    11
 10
562144
 20
3263203
  0
VERTEX
  8
RA_6120
 62
    11
 10
562140
 20
3263234
  0
VERTEX
  8
RA_6120
 62
    11
 10
562169
 20
3263246
  0
VERTEX
  8
RA_6120
 62
    11
 10
562193
 20
3263233
  0
VERTEX
  8
RA_6120
 62
    11
 10
562218
 20
3263226
  0
VERTEX
  8
RA_6120
 62
    11
 10
562283
 20
3263217
  0
VERTEX
  8
RA_6120
 62
    11
 10
562332
 20
3263206
  0
VERTEX
  8
RA_6120
 62
    11
 10
562356
 20
3263204
  0
VERTEX
  8
RA_6120
 62
    11
 10
562407
 20
3263185
  0
VERTEX
  8
RA_6120
 62
    11
 10
562436
 20
3263167
  0
VERTEX
  8
RA_6120
 62
    11
 10
562449
 20
3263150
  0
VERTEX
  8
RA_6120
 62
    11
 10
562455
 20
3263126
  0
VERTEX
  8
RA_6120
 62
    11
 10
562455
 20
3263084
  0
VERTEX
  8
RA_6120
 62
    11
 10
562447
 20
3263069
  0
VERTEX
  8
RA_6120
 62
    11
 10
562438
 20
3263047
  0
VERTEX
  8
RA_6120
 62
    11
 10
562437
 20
3263016
  0
VERTEX
  8
RA_6120
 62
    11
 10
562438
 20
3262992
  0
VERTEX
  8
RA_6120
 62
    11
 10
562432
 20
3262971
  0
VERTEX
  8
RA_6120
 62
    11
 10
562418
 20
3262964
  0
VERTEX
  8
RA_6120
 62
    11
 10
562403
 20
3262965
  0
VERTEX
  8
RA_6120
 62
    11
 10
562392
 20
3262959
  0
VERTEX
  8
RA_6120
 62
    11
 10
562382
 20
3262946
  0
VERTEX
  8
RA_6120
 62
    11
 10
562370
 20
3262913
  0
VERTEX
  8
RA_6120
 62
    11
 10
562359
 20
3262896
  0
VERTEX
  8
RA_6120
 62
    11
 10
562338
 20
3262893
  0
VERTEX
  8
RA_6120
 62
    11
 10
562307
 20
3262890
  0
VERTEX
  8
RA_6120
 62
    11
 10
562278
 20
3262901
  0
VERTEX
  8
RA_6120
 62
    11
 10
562253
 20
3262923
  0
VERTEX
  8
RA_6120
 62
    11
 10
562231
 20
3262943
  0
VERTEX
  8
RA_6120
 62
    11
 10
562203
 20
3262995
  0
VERTEX
  8
RA_6120
 62
    11
 10
562189
 20
3263026
  0
VERTEX
  8
RA_6120
 62
    11
 10
562179
 20
3263068
  0
VERTEX
  8
RA_6120
 62
    11
 10
562185
 20
3263086
  0
VERTEX
  8
RA_6120
 62
    11
 10
562191
 20
3263114
  0
VERTEX
  8
RA_6120
 62
    11
 10
562186
 20
3263152
  0
VERTEX
  8
RA_6120
 62
    11
 10
562179
 20
3263165
  0
SEQEND
  0
POLYLINE
  8
RA_6120
  6
CONTINUOUS
 62
    11
 66
     1
  0
VERTEX
  8
RA_6120
 62
    11
 10
537678
 20
3240369
  0
VERTEX
  8
RA_6120
 62
    11
 10
537701
 20
3240371
  0
VERTEX
  8
RA_6120
 62
    11
 10
537719
 20
3240382
  0
VERTEX
  8
RA_6120
 62
    11
 10
537747
 20
3240388
  0
VERTEX
  8
RA_6120
 62
    11
 10
537769
 20
3240386
  0
VERTEX
  8
RA_6120
 62
    11
 10
537794
 20
3240380
  0
VERTEX
  8
RA_6120
 62
    11
 10
537827
 20
3240376
  0
VERTEX
  8
RA_6120
 62
    11
 10
537853
 20
3240389
  0
VERTEX
  8
RA_6120
 62
    11
 10
537889
 20
3240410
  0
VERTEX
  8
RA_6120
 62
    11
 10
537947
 20
3240440
  0
VERTEX
  8
RA_6120
 62
    11
 10
537959
 20
3240428
  0
VERTEX
  8
RA_6120
 62
    11
 10
537975
 20
3240417
  0
VERTEX
  8
RA_6120
 62
    11
 10
538009
 20
3240425
  0
VERTEX
  8
RA_6120
 62
    11
 10
538049
 20
3240446
  0
VERTEX
  8
RA_6120
 62
    11
 10
538077
 20
3240461
  0
VERTEX
  8
RA_6120
 62
    11
 10
538099
 20
3240483
  0
VERTEX
  8
RA_6120
 62
    11
 10
538164
 20
3240529
  0
VERTEX
  8
RA_6120
 62
    11
 10
538198
 20
3240558
  0
VERTEX
  8
RA_6120
 62
    11
 10
538206
 20
3240576
  0
VERTEX
  8
RA_6120
 62
    11
 10
538194
 20
3240595
  0
VERTEX
  8
RA_6120
 62
    11
 10
538176
 20
3240622
  0
VERTEX
  8
RA_6120
 62
    11
 10
538140
 20
3240684
  0
VERTEX
  8
RA_6120
 62
    11
 10
538124
 20
3240712
  0
VERTEX
  8
RA_6120
 62
    11
 10
538129
 20
3240739
  0
VERTEX
  8
RA_6120
 62
    11
 10
538156
 20
3240755
  0
VERTEX
  8
RA_6120
 62
    11
 10
538183
 20
3240778
  0
VERTEX
  8
RA_6120
 62
    11
 10
538218
 20
3240807
  0
VERTEX
  8
RA_6120
 62
    11
 10
538240
 20
3240807
  0
VERTEX
  8
RA_6120
 62
    11
 10
538254
 20
3240785
  0
VERTEX
  8
RA_6120
 62
    11
 10
538268
 20
3240755
  0
VERTEX
  8
RA_6120
 62
    11
 10
538290
 20
3240750
  0
VERTEX
  8
RA_6120
 62
    11
 10
538314
 20
3240765
  0
VERTEX
  8
RA_6120
 62
    11
 10
538327
 20
3240778
  0
VERTEX
  8
RA_6120
 62
    11
 10
538350
 20
3240786
  0
VERTEX
  8
RA_6120
 62
    11
 10
538384
 20
3240794
  0
VERTEX
  8
RA_6120
 62
    11
 10
538391
 20
3240821
  0
VERTEX
  8
RA_6120
 62
    11
 10
538443
 20
3240905
  0
VERTEX
  8
RA_6120
 62
    11
 10
538509
 20
3240960
  0
VERTEX
  8
RA_6120
 62
    11
 10
538550
 20
3240981
  0
VERTEX
  8
RA_6120
 62
    11
 10
538590
 20
3240992
  0
VERTEX
  8
RA_6120
 62
    11
 10
538628
 20
3241022
  0
VERTEX
  8
RA_6120
 62
    11
 10
538698
 20
3241066
  0
VERTEX
  8
RA_6120
 62
    11
 10
538764
 20
3241094
  0
VERTEX
  8
RA_6120
 62
    11
 10
538776
 20
3241111
  0
VERTEX
  8
RA_6120
 62
    11
 10
538805
 20
3241167
  0
VERTEX
  8
RA_6120
 62
    11
 10
538838
 20
3241211
  0
VERTEX
  8
RA_6120
 62
    11
 10
538888
 20
3241282
  0
VERTEX
  8
RA_6120
 62
    11
 10
538920
 20
3241311
  0
VERTEX
  8
RA_6120
 62
    11
 10
538986
 20
3241365
  0
VERTEX
  8
RA_6120
 62
    11
 10
539034
 20
3241423
  0
VERTEX
  8
RA_6120
 62
    11
 10
539087
 20
3241490
  0
VERTEX
  8
RA_6120
 62
    11
 10
539148
 20
3241566
  0
VERTEX
  8
RA_6120
 62
    11
 10
539194
 20
3241625
  0
VERTEX
  8
RA_6120
 62
    11
 10
539223
 20
3241662
  0
VERTEX
  8
RA_6120
 62
    11
 10
539230
 20
3241692
  0
VERTEX
  8
RA_6120
 62
    11
 10
539227
 20
3241707
  0
VERTEX
  8
RA_6120
 62
    11
 10
539215
 20
3241714
  0
VERTEX
  8
RA_6120
 62
    11
 10
539199
 20
3241710
  0
VERTEX
  8
RA_6120
 62
    11
 10
539162
 20
3241676
  0
VERTEX
  8
RA_6120
 62
    11
 10
539108
 20
3241607
  0
VERTEX
  8
RA_6120
 62
    11
 10
539062
 20
3241533
  0
VERTEX
  8
RA_6120
 62
    11
 10
539040
 20
3241508
  0
VERTEX
  8
RA_6120
 62
    11
 10
539012
 20
3241473
  0
VERTEX
  8
RA_6120
 62
    11
 10
538980
 20
3241454
  0
SEQEND
  0
POLYLINE
  8
RA_6120
  6
CONTINUOUS
 62
    11
 66
     1
  0
VERTEX
  8
RA_6120
 62
    11
 10
537141
 20
3239797
  0
VERTEX
  8
RA_6120
 62
    11
 10
537152
 20
3239777
  0
VERTEX
  8
RA_6120
 62
    11
 10
537164
 20
3239754
  0
VERTEX
  8
RA_6120
 62
    11
 10
537175
 20
3239748
  0
VERTEX
  8
RA_6120
 62
    11
 10
537191
 20
3239753
  0
VERTEX
  8
RA_6120
 62
    11
 10
537208
 20
3239778
  0
VERTEX
  8
RA_6120
 62
    11
 10
537226
 20
3239796
  0
VERTEX
  8
RA_6120
 62
    11
 10
537252
 20
3239811
  0
VERTEX
  8
RA_6120
 62
    11
 10
537274
 20
3239827
  0
VERTEX
  8
RA_6120
 62
    11
 10
537290
 20
3239850
  0
VERTEX
  8
RA_6120
 62
    11
 10
537319
 20
3239904
  0
VERTEX
  8
RA_6120
 62
    11
 10
537331
 20
3239924
  0
VERTEX
  8
RA_6120
 62
    11
 10
537335
 20
3239942
  0
VERTEX
  8
RA_6120
 62
    11
 10
537329
 20
3239964
  0
SEQEND
  0
POLYLINE
  8
RA_6120
  6
CONTINUOUS
 62
    11
 66
     1
  0
VERTEX
  8
RA_6120
 62
    11
 10
560340
 20
3255980
  0
VERTEX
  8
RA_6120
 62
    11
 10
560270
 20
3256020
  0
SEQEND
  0
POLYLINE
  8
RA_6120
  6
CONTINUOUS
 62
    11
 66
     1
  0
VERTEX
  8
RA_6120
 62
    11
 10
535210
 20
3236041
  0
VERTEX
  8
RA_6120
 62
    11
 10
535263
 20
3235965
  0
VERTEX
  8
RA_6120
 62
    11
 10
535300
 20
3235898
  0
VERTEX
  8
RA_6120
 62
    11
 10
535316
 20
3235870
  0
SEQEND
  0
POLYLINE
  8
RA_6120
  6
CONTINUOUS
 62
    11
 66
     1
  0
VERTEX
  8
RA_6120
 62
    11
 10
534159
 20
3249856
  0
VERTEX
  8
RA_6120
 62
    11
 10
534189
 20
3249884
  0
VERTEX
  8
RA_6120
 62
    11
 10
534223
 20
3249930
  0
VERTEX
  8
RA_6120
 62
    11
 10
534254
 20
3250000
  0
VERTEX
  8
RA_6120
 62
    11
 10
534268
 20
3250031
  0
SEQEND
  0
POLYLINE
  8
RA_6120
  6
CONTINUOUS
 62
    11
 66
     1
  0
VERTEX
  8
RA_6120
 62
    11
 10
537914
 20
3240100
  0
VERTEX
  8
RA_6120
 62
    11
 10
537932
 20
3240067
  0
VERTEX
  8
RA_6120
 62
    11
 10
537952
 20
3240042
  0
SEQEND
  0
POLYLINE
  8
RA_6120
  6
CONTINUOUS
 62
    11
 66
     1
  0
VERTEX
  8
RA_6120
 62
    11
 10
549110
 20
3248139
  0
VERTEX
  8
RA_6120
 62
    11
 10
549083
 20
3248110
  0
SEQEND
  0
POLYLINE
  8
RA_6120
  6
CONTINUOUS
 62
    11
 66
     1
  0
VERTEX
  8
RA_6120
 62
    11
 10
537651
 20
3240506
  0
VERTEX
  8
RA_6120
 62
    11
 10
537672
 20
3240515
  0
VERTEX
  8
RA_6120
 62
    11
 10
537698
 20
3240594
  0
VERTEX
  8
RA_6120
 62
    11
 10
537723
 20
3240636
  0
VERTEX
  8
RA_6120
 62
    11
 10
537740
 20
3240664
  0
VERTEX
  8
RA_6120
 62
    11
 10
537773
 20
3240731
  0
VERTEX
  8
RA_6120
 62
    11
 10
537792
 20
3240758
  0
VERTEX
  8
RA_6120
 62
    11
 10
537802
 20
3240776
  0
VERTEX
  8
RA_6120
 62
    11
 10
537832
 20
3240788
  0
VERTEX
  8
RA_6120
 62
    11
 10
537852
 20
3240781
  0
VERTEX
  8
RA_6120
 62
    11
 10
537867
 20
3240764
  0
VERTEX
  8
RA_6120
 62
    11
 10
537890
 20
3240747
  0
VERTEX
  8
RA_6120
 62
    11
 10
537914
 20
3240751
  0
VERTEX
  8
RA_6120
 62
    11
 10
537926
 20
3240763
  0
VERTEX
  8
RA_6120
 62
    11
 10
537936
 20
3240781
  0
VERTEX
  8
RA_6120
 62
    11
 10
537940
 20
3240799
  0
VERTEX
  8
RA_6120
 62
    11
 10
537964
 20
3240807
  0
VERTEX
  8
RA_6120
 62
    11
 10
537989
 20
3240818
  0
VERTEX
  8
RA_6120
 62
    11
 10
538012
 20
3240822
  0
VERTEX
  8
RA_6120
 62
    11
 10
538024
 20
3240809
  0
VERTEX
  8
RA_6120
 62
    11
 10
538036
 20
3240777
  0
VERTEX
  8
RA_6120
 62
    11
 10
538055
 20
3240752
  0
SEQEND
  0
POLYLINE
  8
RA_6120
  6
CONTINUOUS
 62
    11
 66
     1
  0
VERTEX
  8
RA_6120
 62
    11
 10
535363
 20
3235790
  0
VERTEX
  8
RA_6120
 62
    11
 10
535386
 20
3235813
  0
VERTEX
  8
RA_6120
 62
    11
 10
535409
 20
3235826
  0
VERTEX
  8
RA_6120
 62
    11
 10
535508
 20
3235886
  0
VERTEX
  8
RA_6120
 62
    11
 10
535552
 20
3235906
  0
VERTEX
  8
RA_6120
 62
    11
 10
535565
 20
3235928
  0
VERTEX
  8
RA_6120
 62
    11
 10
535568
 20
3235945
  0
VERTEX
  8
RA_6120
 62
    11
 10
535559
 20
3235961
  0
VERTEX
  8
RA_6120
 62
    11
 10
535528
 20
3235999
  0
VERTEX
  8
RA_6120
 62
    11
 10
535507
 20
3236009
  0
VERTEX
  8
RA_6120
 62
    11
 10
535481
 20
3236002
  0
VERTEX
  8
RA_6120
 62
    11
 10
535454
 20
3235986
  0
VERTEX
  8
RA_6120
 62
    11
 10
535414
 20
3235951
  0
VERTEX
  8
RA_6120
 62
    11
 10
535344
 20
3235890
  0
VERTEX
  8
RA_6120
 62
    11
 10
535316
 20
3235870
  0
SEQEND
  0
POLYLINE
  8
RA_6120
  6
CONTINUOUS
 62
    11
 66
     1
  0
VERTEX
  8
RA_6120
 62
    11
 10
562470
 20
3254688
  0
VERTEX
  8
RA_6120
 62
    11
 10
562468
 20
3254730
  0
VERTEX
  8
RA_6120
 62
    11
 10
562451
 20
3254755
  0
VERTEX
  8
RA_6120
 62
    11
 10
562387
 20
3254847
  0
VERTEX
  8
RA_6120
 62
    11
 10
562339
 20
3254885
  0
VERTEX
  8
RA_6120
 62
    11
 10
562297
 20
3254893
  0
VERTEX
  8
RA_6120
 62
    11
 10
562243
 20
3254888
  0
VERTEX
  8
RA_6120
 62
    11
 10
562214
 20
3254901
  0
VERTEX
  8
RA_6120
 62
    11
 10
562184
 20
3254920
  0
VERTEX
  8
RA_6120
 62
    11
 10
562140
 20
3254988
  0
VERTEX
  8
RA_6120
 62
    11
 10
562101
 20
3255070
  0
VERTEX
  8
RA_6120
 62
    11
 10
562072
 20
3255108
  0
VERTEX
  8
RA_6120
 62
    11
 10
562043
 20
3255160
  0
VERTEX
  8
RA_6120
 62
    11
 10
562022
 20
3255181
  0
VERTEX
  8
RA_6120
 62
    11
 10
561995
 20
3255195
  0
VERTEX
  8
RA_6120
 62
    11
 10
561981
 20
3255210
  0
VERTEX
  8
RA_6120
 62
    11
 10
561979
 20
3255233
  0
VERTEX
  8
RA_6120
 62
    11
 10
561981
 20
3255264
  0
VERTEX
  8
RA_6120
 62
    11
 10
561989
 20
3255285
  0
VERTEX
  8
RA_6120
 62
    11
 10
562011
 20
3255287
  0
VERTEX
  8
RA_6120
 62
    11
 10
562034
 20
3255279
  0
VERTEX
  8
RA_6120
 62
    11
 10
562350
 20
3255214
  0
VERTEX
  8
RA_6120
 62
    11
 10
562436
 20
3255198
  0
VERTEX
  8
RA_6120
 62
    11
 10
562464
 20
3255191
  0
VERTEX
  8
RA_6120
 62
    11
 10
562481
 20
3255172
  0
VERTEX
  8
RA_6120
 62
    11
 10
562487
 20
3255121
  0
VERTEX
  8
RA_6120
 62
    11
 10
562511
 20
3255085
  0
VERTEX
  8
RA_6120
 62
    11
 10
562526
 20
3255051
  0
VERTEX
  8
RA_6120
 62
    11
 10
562551
 20
3255010
  0
VERTEX
  8
RA_6120
 62
    11
 10
562575
 20
3254983
  0
VERTEX
  8
RA_6120
 62
    11
 10
562585
 20
3254973
  0
VERTEX
  8
RA_6120
 62
    11
 10
562596
 20
3254956
  0
VERTEX
  8
RA_6120
 62
    11
 10
562592
 20
3254938
  0
VERTEX
  8
RA_6120
 62
    11
 10
562614
 20
3254861
  0
VERTEX
  8
RA_6120
 62
    11
 10
562641
 20
3254842
  0
VERTEX
  8
RA_6120
 62
    11
 10
562660
 20
3254825
  0
SEQEND
  0
POLYLINE
  8
RA_6120
  6
CONTINUOUS
 62
    11
 66
     1
  0
VERTEX
  8
RA_6120
 62
    11
 10
562497
 20
3256503
  0
VERTEX
  8
RA_6120
 62
    11
 10
562534
 20
3256460
  0
VERTEX
  8
RA_6120
 62
    11
 10
562558
 20
3256433
  0
VERTEX
  8
RA_6120
 62
    11
 10
562599
 20
3256386
  0
VERTEX
  8
RA_6120
 62
    11
 10
562616
 20
3256348
  0
VERTEX
  8
RA_6120
 62
    11
 10
562628
 20
3256332
  0
VERTEX
  8
RA_6120
 62
    11
 10
562668
 20
3256288
  0
VERTEX
  8
RA_6120
 62
    11
 10
562749
 20
3256258
  0
SEQEND
  0
POLYLINE
  8
RA_6120
  6
CONTINUOUS
 62
    11
 66
     1
  0
VERTEX
  8
RA_6120
 62
    11
 10
548675
 20
3248826
  0
VERTEX
  8
RA_6120
 62
    11
 10
548605
 20
3248746
  0
VERTEX
  8
RA_6120
 62
    11
 10
548503
 20
3248665
  0
VERTEX
  8
RA_6120
 62
    11
 10
548451
 20
3248631
  0
VERTEX
  8
RA_6120
 62
    11
 10
548447
 20
3248628
  0
VERTEX
  8
RA_6120
 62
    11
 10
548443
 20
3248613
  0
VERTEX
  8
RA_6120
 62
    11
 10
548446
 20
3248579
  0
VERTEX
  8
RA_6120
 62
    11
 10
548427
 20
3248565
  0
VERTEX
  8
RA_6120
 62
    11
 10
548429
 20
3248551
  0
VERTEX
  8
RA_6120
 62
    11
 10
548438
 20
3248540
  0
VERTEX
  8
RA_6120
 62
    11
 10
548447
 20
3248520
  0
VERTEX
  8
RA_6120
 62
    11
 10
548447
 20
3248502
  0
VERTEX
  8
RA_6120
 62
    11
 10
548428
 20
3248478
  0
VERTEX
  8
RA_6120
 62
    11
 10
548403
 20
3248464
  0
VERTEX
  8
RA_6120
 62
    11
 10
548322
 20
3248421
  0
VERTEX
  8
RA_6120
 62
    11
 10
548296
 20
3248414
  0
VERTEX
  8
RA_6120
 62
    11
 10
548278
 20
3248394
  0
VERTEX
  8
RA_6120
 62
    11
 10
548280
 20
3248367
  0
VERTEX
  8
RA_6120
 62
    11
 10
548291
 20
3248342
  0
VERTEX
  8
RA_6120
 62
    11
 10
548331
 20
3248353
  0
VERTEX
  8
RA_6120
 62
    11
 10
548432
 20
3248391
  0
VERTEX
  8
RA_6120
 62
    11
 10
548469
 20
3248412
  0
VERTEX
  8
RA_6120
 62
    11
 10
548490
 20
3248427
  0
VERTEX
  8
RA_6120
 62
    11
 10
548487
 20
3248446
  0
VERTEX
  8
RA_6120
 62
    11
 10
548478
 20
3248473
  0
VERTEX
  8
RA_6120
 62
    11
 10
548479
 20
3248486
  0
VERTEX
  8
RA_6120
 62
    11
 10
548491
 20
3248500
  0
VERTEX
  8
RA_6120
 62
    11
 10
548516
 20
3248517
  0
VERTEX
  8
RA_6120
 62
    11
 10
548548
 20
3248541
  0
VERTEX
  8
RA_6120
 62
    11
 10
548592
 20
3248573
  0
VERTEX
  8
RA_6120
 62
    11
 10
548680
 20
3248645
  0
VERTEX
  8
RA_6120
 62
    11
 10
548715
 20
3248674
  0
VERTEX
  8
RA_6120
 62
    11
 10
548780
 20
3248714
  0
VERTEX
  8
RA_6120
 62
    11
 10
548780
 20
3248733
  0
VERTEX
  8
RA_6120
 62
    11
 10
548746
 20
3248774
  0
VERTEX
  8
RA_6120
 62
    11
 10
548731
 20
3248824
  0
VERTEX
  8
RA_6120
 62
    11
 10
548712
 20
3248840
  0
VERTEX
  8
RA_6120
 62
    11
 10
548692
 20
3248845
  0
SEQEND
  0
POLYLINE
  8
RA_6120
  6
CONTINUOUS
 62
    11
 66
     1
  0
VERTEX
  8
RA_6120
 62
    11
 10
535363
 20
3235790
  0
VERTEX
  8
RA_6120
 62
    11
 10
535392
 20
3235739.999999
  0
SEQEND
  0
POLYLINE
  8
RA_6120
  6
CONTINUOUS
 62
    11
 66
     1
  0
VERTEX
  8
RA_6120
 62
    11
 10
553084
 20
3252812
  0
VERTEX
  8
RA_6120
 62
    11
 10
553067
 20
3252794
  0
VERTEX
  8
RA_6120
 62
    11
 10
553055
 20
3252771
  0
VERTEX
  8
RA_6120
 62
    11
 10
553041
 20
3252756
  0
VERTEX
  8
RA_6120
 62
    11
 10
553034
 20
3252726
  0
VERTEX
  8
RA_6120
 62
    11
 10
553035
 20
3252648
  0
VERTEX
  8
RA_6120
 62
    11
 10
553048
 20
3252603
  0
VERTEX
  8
RA_6120
 62
    11
 10
553068
 20
3252565
  0
VERTEX
  8
RA_6120
 62
    11
 10
553084
 20
3252540
  0
VERTEX
  8
RA_6120
 62
    11
 10
553106
 20
3252515
  0
VERTEX
  8
RA_6120
 62
    11
 10
553116
 20
3252531
  0
VERTEX
  8
RA_6120
 62
    11
 10
553123
 20
3252561
  0
VERTEX
  8
RA_6120
 62
    11
 10
553134
 20
3252561
  0
VERTEX
  8
RA_6120
 62
    11
 10
553139
 20
3252515
  0
VERTEX
  8
RA_6120
 62
    11
 10
553145
 20
3252497
  0
VERTEX
  8
RA_6120
 62
    11
 10
553156
 20
3252473
  0
VERTEX
  8
RA_6120
 62
    11
 10
553167
 20
3252459
  0
VERTEX
  8
RA_6120
 62
    11
 10
553183
 20
3252457
  0
VERTEX
  8
RA_6120
 62
    11
 10
553197
 20
3252469
  0
VERTEX
  8
RA_6120
 62
    11
 10
553231
 20
3252509
  0
VERTEX
  8
RA_6120
 62
    11
 10
553295
 20
3252596
  0
VERTEX
  8
RA_6120
 62
    11
 10
553315
 20
3252619
  0
VERTEX
  8
RA_6120
 62
    11
 10
553339
 20
3252636
  0
VERTEX
  8
RA_6120
 62
    11
 10
553356
 20
3252642
  0
VERTEX
  8
RA_6120
 62
    11
 10
553376
 20
3252665
  0
VERTEX
  8
RA_6120
 62
    11
 10
553413
 20
3252728
  0
VERTEX
  8
RA_6120
 62
    11
 10
553423
 20
3252742
  0
VERTEX
  8
RA_6120
 62
    11
 10
553445
 20
3252769
  0
VERTEX
  8
RA_6120
 62
    11
 10
553468
 20
3252800
  0
VERTEX
  8
RA_6120
 62
    11
 10
553516
 20
3252866
  0
VERTEX
  8
RA_6120
 62
    11
 10
553559
 20
3252927
  0
VERTEX
  8
RA_6120
 62
    11
 10
553579
 20
3252965
  0
VERTEX
  8
RA_6120
 62
    11
 10
553632
 20
3253028
  0
VERTEX
  8
RA_6120
 62
    11
 10
553647
 20
3253059
  0
VERTEX
  8
RA_6120
 62
    11
 10
553663
 20
3253086
  0
VERTEX
  8
RA_6120
 62
    11
 10
553675
 20
3253117
  0
VERTEX
  8
RA_6120
 62
    11
 10
553674
 20
3253155
  0
VERTEX
  8
RA_6120
 62
    11
 10
553685
 20
3253228
  0
VERTEX
  8
RA_6120
 62
    11
 10
553688
 20
3253252
  0
VERTEX
  8
RA_6120
 62
    11
 10
553694
 20
3253280
  0
VERTEX
  8
RA_6120
 62
    11
 10
553695
 20
3253311
  0
VERTEX
  8
RA_6120
 62
    11
 10
553677
 20
3253314
  0
VERTEX
  8
RA_6120
 62
    11
 10
553656
 20
3253309
  0
VERTEX
  8
RA_6120
 62
    11
 10
553630
 20
3253296
  0
VERTEX
  8
RA_6120
 62
    11
 10
553564
 20
3253269
  0
VERTEX
  8
RA_6120
 62
    11
 10
553482
 20
3253269
  0
VERTEX
  8
RA_6120
 62
    11
 10
553460
 20
3253274
  0
VERTEX
  8
RA_6120
 62
    11
 10
553427
 20
3253290
  0
VERTEX
  8
RA_6120
 62
    11
 10
553399
 20
3253304
  0
VERTEX
  8
RA_6120
 62
    11
 10
553367
 20
3253310
  0
VERTEX
  8
RA_6120
 62
    11
 10
553346
 20
3253304
  0
VERTEX
  8
RA_6120
 62
    11
 10
553308
 20
3253253
  0
VERTEX
  8
RA_6120
 62
    11
 10
553298
 20
3253229
  0
VERTEX
  8
RA_6120
 62
    11
 10
553305
 20
3253196
  0
VERTEX
  8
RA_6120
 62
    11
 10
553298
 20
3253181
  0
VERTEX
  8
RA_6120
 62
    11
 10
553271
 20
3253191
  0
VERTEX
  8
RA_6120
 62
    11
 10
553249
 20
3253205
  0
VERTEX
  8
RA_6120
 62
    11
 10
553235
 20
3253219
  0
VERTEX
  8
RA_6120
 62
    11
 10
553230
 20
3253259
  0
VERTEX
  8
RA_6120
 62
    11
 10
553222
 20
3253271
  0
VERTEX
  8
RA_6120
 62
    11
 10
553208
 20
3253269
  0
VERTEX
  8
RA_6120
 62
    11
 10
553191
 20
3253251
  0
VERTEX
  8
RA_6120
 62
    11
 10
553173
 20
3253221
  0
VERTEX
  8
RA_6120
 62
    11
 10
553154
 20
3253208
  0
VERTEX
  8
RA_6120
 62
    11
 10
553125
 20
3253165
  0
VERTEX
  8
RA_6120
 62
    11
 10
553085
 20
3253110
  0
VERTEX
  8
RA_6120
 62
    11
 10
553077
 20
3253092
  0
VERTEX
  8
RA_6120
 62
    11
 10
553091
 20
3253077
  0
VERTEX
  8
RA_6120
 62
    11
 10
553109
 20
3253067
  0
VERTEX
  8
RA_6120
 62
    11
 10
553121
 20
3253065
  0
VERTEX
  8
RA_6120
 62
    11
 10
553131
 20
3253059
  0
VERTEX
  8
RA_6120
 62
    11
 10
553093
 20
3252912
  0
VERTEX
  8
RA_6120
 62
    11
 10
553088
 20
3252882
  0
VERTEX
  8
RA_6120
 62
    11
 10
553094
 20
3252865
  0
VERTEX
  8
RA_6120
 62
    11
 10
553095
 20
3252852
  0
VERTEX
  8
RA_6120
 62
    11
 10
553098
 20
3252840
  0
VERTEX
  8
RA_6120
 62
    11
 10
553084
 20
3252812
  0
SEQEND
  0
POLYLINE
  8
RA_6120
  6
CONTINUOUS
 62
    11
 66
     1
  0
VERTEX
  8
RA_6120
 62
    11
 10
560270
 20
3256020
  0
VERTEX
  8
RA_6120
 62
    11
 10
560233
 20
3256069
  0
VERTEX
  8
RA_6120
 62
    11
 10
560212
 20
3256097
  0
VERTEX
  8
RA_6120
 62
    11
 10
560187
 20
3256155
  0
VERTEX
  8
RA_6120
 62
    11
 10
560175
 20
3256247
  0
VERTEX
  8
RA_6120
 62
    11
 10
560182
 20
3256267
  0
VERTEX
  8
RA_6120
 62
    11
 10
560201
 20
3256262
  0
VERTEX
  8
RA_6120
 62
    11
 10
560233
 20
3256253
  0
VERTEX
  8
RA_6120
 62
    11
 10
560271
 20
3256244
  0
VERTEX
  8
RA_6120
 62
    11
 10
560323
 20
3256236
  0
VERTEX
  8
RA_6120
 62
    11
 10
560393
 20
3256241
  0
VERTEX
  8
RA_6120
 62
    11
 10
560461
 20
3256256
  0
VERTEX
  8
RA_6120
 62
    11
 10
560519
 20
3256270
  0
VERTEX
  8
RA_6120
 62
    11
 10
560585
 20
3256278
  0
VERTEX
  8
RA_6120
 62
    11
 10
560615
 20
3256284
  0
VERTEX
  8
RA_6120
 62
    11
 10
560646
 20
3256286
  0
VERTEX
  8
RA_6120
 62
    11
 10
560675
 20
3256285
  0
VERTEX
  8
RA_6120
 62
    11
 10
560704
 20
3256288
  0
VERTEX
  8
RA_6120
 62
    11
 10
560755
 20
3256307
  0
VERTEX
  8
RA_6120
 62
    11
 10
560816
 20
3256335
  0
VERTEX
  8
RA_6120
 62
    11
 10
560859
 20
3256336
  0
VERTEX
  8
RA_6120
 62
    11
 10
560888
 20
3256341
  0
VERTEX
  8
RA_6120
 62
    11
 10
560908
 20
3256361
  0
VERTEX
  8
RA_6120
 62
    11
 10
560927
 20
3256379
  0
VERTEX
  8
RA_6120
 62
    11
 10
560969
 20
3256400
  0
VERTEX
  8
RA_6120
 62
    11
 10
561018
 20
3256417
  0
VERTEX
  8
RA_6120
 62
    11
 10
561039
 20
3256431
  0
VERTEX
  8
RA_6120
 62
    11
 10
561076
 20
3256437
  0
VERTEX
  8
RA_6120
 62
    11
 10
561095
 20
3256443
  0
VERTEX
  8
RA_6120
 62
    11
 10
561114
 20
3256447
  0
VERTEX
  8
RA_6120
 62
    11
 10
561157
 20
3256449
  0
VERTEX
  8
RA_6120
 62
    11
 10
561193
 20
3256448
  0
VERTEX
  8
RA_6120
 62
    11
 10
561228
 20
3256452
  0
VERTEX
  8
RA_6120
 62
    11
 10
561318
 20
3256456
  0
VERTEX
  8
RA_6120
 62
    11
 10
561342
 20
3256450
  0
VERTEX
  8
RA_6120
 62
    11
 10
561373
 20
3256429
  0
VERTEX
  8
RA_6120
 62
    11
 10
561416
 20
3256412
  0
VERTEX
  8
RA_6120
 62
    11
 10
561463
 20
3256410
  0
VERTEX
  8
RA_6120
 62
    11
 10
561503
 20
3256400
  0
VERTEX
  8
RA_6120
 62
    11
 10
561520
 20
3256379
  0
VERTEX
  8
RA_6120
 62
    11
 10
561538
 20
3256356
  0
VERTEX
  8
RA_6120
 62
    11
 10
561549
 20
3256335
  0
VERTEX
  8
RA_6120
 62
    11
 10
561547
 20
3256314
  0
VERTEX
  8
RA_6120
 62
    11
 10
561515
 20
3256291
  0
VERTEX
  8
RA_6120
 62
    11
 10
561489
 20
3256283
  0
VERTEX
  8
RA_6120
 62
    11
 10
561450
 20
3256274
  0
VERTEX
  8
RA_6120
 62
    11
 10
561419
 20
3256274
  0
VERTEX
  8
RA_6120
 62
    11
 10
561303
 20
3256271
  0
VERTEX
  8
RA_6120
 62
    11
 10
561275
 20
3256271
  0
VERTEX
  8
RA_6120
 62
    11
 10
561245
 20
3256260
  0
VERTEX
  8
RA_6120
 62
    11
 10
561191
 20
3256247
  0
VERTEX
  8
RA_6120
 62
    11
 10
561174
 20
3256250
  0
VERTEX
  8
RA_6120
 62
    11
 10
561164
 20
3256262
  0
VERTEX
  8
RA_6120
 62
    11
 10
561150
 20
3256264
  0
VERTEX
  8
RA_6120
 62
    11
 10
561136
 20
3256252
  0
VERTEX
  8
RA_6120
 62
    11
 10
561131
 20
3256223
  0
VERTEX
  8
RA_6120
 62
    11
 10
561104
 20
3256202
  0
VERTEX
  8
RA_6120
 62
    11
 10
561048
 20
3256169
  0
VERTEX
  8
RA_6120
 62
    11
 10
560941
 20
3256133
  0
VERTEX
  8
RA_6120
 62
    11
 10
560897
 20
3256114
  0
VERTEX
  8
RA_6120
 62
    11
 10
560774
 20
3256094
  0
VERTEX
  8
RA_6120
 62
    11
 10
560723
 20
3256081
  0
VERTEX
  8
RA_6120
 62
    11
 10
560686
 20
3256066
  0
VERTEX
  8
RA_6120
 62
    11
 10
560616
 20
3256058
  0
VERTEX
  8
RA_6120
 62
    11
 10
560497
 20
3256038
  0
VERTEX
  8
RA_6120
 62
    11
 10
560422
 20
3256010
  0
VERTEX
  8
RA_6120
 62
    11
 10
560395
 20
3256000
  0
VERTEX
  8
RA_6120
 62
    11
 10
560370
 20
3255995
  0
VERTEX
  8
RA_6120
 62
    11
 10
560340
 20
3255980
  0
SEQEND
  0
POLYLINE
  8
RA_6120
  6
CONTINUOUS
 62
    11
 66
     1
  0
VERTEX
  8
RA_6120
 62
    11
 10
548692
 20
3248845
  0
VERTEX
  8
RA_6120
 62
    11
 10
548675
 20
3248826
  0
SEQEND
  0
POLYLINE
  8
RA_6120
  6
CONTINUOUS
 62
    11
 66
     1
  0
VERTEX
  8
RA_6120
 62
    11
 10
538055
 20
3240752
  0
VERTEX
  8
RA_6120
 62
    11
 10
538248
 20
3240933
  0
VERTEX
  8
RA_6120
 62
    11
 10
538387
 20
3241010
  0
VERTEX
  8
RA_6120
 62
    11
 10
538483
 20
3241019
  0
VERTEX
  8
RA_6120
 62
    11
 10
538514
 20
3241022
  0
VERTEX
  8
RA_6120
 62
    11
 10
538532
 20
3241038
  0
VERTEX
  8
RA_6120
 62
    11
 10
538737
 20
3241219
  0
SEQEND
  0
POLYLINE
  8
RA_6120
  6
CONTINUOUS
 62
    11
 66
     1
  0
VERTEX
  8
RA_6120
 62
    11
 10
559354
 20
3254983
  0
VERTEX
  8
RA_6120
 62
    11
 10
559393
 20
3254992
  0
SEQEND
  0
POLYLINE
  8
RA_6120
  6
CONTINUOUS
 62
    11
 66
     1
  0
VERTEX
  8
RA_6120
 62
    11
 10
559393
 20
3254992
  0
VERTEX
  8
RA_6120
 62
    11
 10
559432
 20
3255002
  0
SEQEND
  0
POLYLINE
  8
RA_6120
  6
CONTINUOUS
 62
    11
 66
     1
  0
VERTEX
  8
RA_6120
 62
    11
 10
560232
 20
3255406
  0
VERTEX
  8
RA_6120
 62
    11
 10
560243
 20
3255369
  0
VERTEX
  8
RA_6120
 62
    11
 10
560258
 20
3255308
  0
VERTEX
  8
RA_6120
 62
    11
 10
560268
 20
3255256
  0
VERTEX
  8
RA_6120
 62
    11
 10
560287
 20
3255113
  0
VERTEX
  8
RA_6120
 62
    11
 10
560306
 20
3254983
  0
VERTEX
  8
RA_6120
 62
    11
 10
560323
 20
3254835
  0
VERTEX
  8
RA_6120
 62
    11
 10
560335
 20
3254756
  0
SEQEND
  0
POLYLINE
  8
RA_6120
  6
CONTINUOUS
 62
    11
 66
     1
  0
VERTEX
  8
RA_6120
 62
    11
 10
559593
 20
3253986
  0
VERTEX
  8
RA_6120
 62
    11
 10
559616
 20
3253996
  0
VERTEX
  8
RA_6120
 62
    11
 10
559626
 20
3254009
  0
VERTEX
  8
RA_6120
 62
    11
 10
559643
 20
3254021
  0
VERTEX
  8
RA_6120
 62
    11
 10
559664
 20
3254025
  0
VERTEX
  8
RA_6120
 62
    11
 10
559681
 20
3254028
  0
VERTEX
  8
RA_6120
 62
    11
 10
559709
 20
3254036
  0
VERTEX
  8
RA_6120
 62
    11
 10
559716
 20
3254055
  0
VERTEX
  8
RA_6120
 62
    11
 10
559712
 20
3254082
  0
VERTEX
  8
RA_6120
 62
    11
 10
559693
 20
3254140
  0
VERTEX
  8
RA_6120
 62
    11
 10
559671
 20
3254184
  0
VERTEX
  8
RA_6120
 62
    11
 10
559661
 20
3254203
  0
VERTEX
  8
RA_6120
 62
    11
 10
559662
 20
3254220
  0
VERTEX
  8
RA_6120
 62
    11
 10
559676
 20
3254232
  0
VERTEX
  8
RA_6120
 62
    11
 10
559711
 20
3254245
  0
VERTEX
  8
RA_6120
 62
    11
 10
559736
 20
3254261
  0
VERTEX
  8
RA_6120
 62
    11
 10
559752
 20
3254271
  0
VERTEX
  8
RA_6120
 62
    11
 10
559757
 20
3254299
  0
VERTEX
  8
RA_6120
 62
    11
 10
559755
 20
3254324
  0
VERTEX
  8
RA_6120
 62
    11
 10
559752
 20
3254348
  0
VERTEX
  8
RA_6120
 62
    11
 10
559752
 20
3254372
  0
VERTEX
  8
RA_6120
 62
    11
 10
559786
 20
3254378
  0
VERTEX
  8
RA_6120
 62
    11
 10
559841
 20
3254396
  0
VERTEX
  8
RA_6120
 62
    11
 10
559854
 20
3254393
  0
VERTEX
  8
RA_6120
 62
    11
 10
559864
 20
3254382
  0
VERTEX
  8
RA_6120
 62
    11
 10
559872
 20
3254359
  0
VERTEX
  8
RA_6120
 62
    11
 10
559886
 20
3254332
  0
VERTEX
  8
RA_6120
 62
    11
 10
559905
 20
3254323
  0
VERTEX
  8
RA_6120
 62
    11
 10
559922
 20
3254317
  0
VERTEX
  8
RA_6120
 62
    11
 10
559928
 20
3254297
  0
VERTEX
  8
RA_6120
 62
    11
 10
559902
 20
3254280
  0
VERTEX
  8
RA_6120
 62
    11
 10
559887
 20
3254259
  0
VERTEX
  8
RA_6120
 62
    11
 10
559883
 20
3254234
  0
VERTEX
  8
RA_6120
 62
    11
 10
559970
 20
3254048
  0
VERTEX
  8
RA_6120
 62
    11
 10
559989
 20
3254029
  0
VERTEX
  8
RA_6120
 62
    11
 10
560003
 20
3254028
  0
VERTEX
  8
RA_6120
 62
    11
 10
560023
 20
3254034
  0
VERTEX
  8
RA_6120
 62
    11
 10
560123
 20
3254052
  0
VERTEX
  8
RA_6120
 62
    11
 10
560163
 20
3254060
  0
VERTEX
  8
RA_6120
 62
    11
 10
560175
 20
3254069
  0
VERTEX
  8
RA_6120
 62
    11
 10
560174
 20
3254090
  0
VERTEX
  8
RA_6120
 62
    11
 10
560188
 20
3254121
  0
VERTEX
  8
RA_6120
 62
    11
 10
560194
 20
3254139
  0
VERTEX
  8
RA_6120
 62
    11
 10
560199
 20
3254198
  0
VERTEX
  8
RA_6120
 62
    11
 10
560202
 20
3254218
  0
VERTEX
  8
RA_6120
 62
    11
 10
560209
 20
3254236
  0
VERTEX
  8
RA_6120
 62
    11
 10
560220
 20
3254249
  0
VERTEX
  8
RA_6120
 62
    11
 10
560245
 20
3254269
  0
VERTEX
  8
RA_6120
 62
    11
 10
560275
 20
3254287
  0
VERTEX
  8
RA_6120
 62
    11
 10
560287
 20
3254305
  0
VERTEX
  8
RA_6120
 62
    11
 10
560285
 20
3254325
  0
VERTEX
  8
RA_6120
 62
    11
 10
560252
 20
3254418
  0
VERTEX
  8
RA_6120
 62
    11
 10
560240
 20
3254466
  0
VERTEX
  8
RA_6120
 62
    11
 10
560247
 20
3254482
  0
VERTEX
  8
RA_6120
 62
    11
 10
560258
 20
3254502
  0
VERTEX
  8
RA_6120
 62
    11
 10
560281
 20
3254592
  0
VERTEX
  8
RA_6120
 62
    11
 10
560282
 20
3254632
  0
VERTEX
  8
RA_6120
 62
    11
 10
560279
 20
3254659
  0
VERTEX
  8
RA_6120
 62
    11
 10
560277
 20
3254717
  0
VERTEX
  8
RA_6120
 62
    11
 10
560284
 20
3254731
  0
VERTEX
  8
RA_6120
 62
    11
 10
560299
 20
3254743
  0
VERTEX
  8
RA_6120
 62
    11
 10
560319
 20
3254745
  0
VERTEX
  8
RA_6120
 62
    11
 10
560335
 20
3254756
  0
SEQEND
  0
POLYLINE
  8
RA_6120
  6
CONTINUOUS
 62
    11
 66
     1
  0
VERTEX
  8
RA_6120
 62
    11
 10
559548
 20
3254129
  0
VERTEX
  8
RA_6120
 62
    11
 10
559559
 20
3254104
  0
VERTEX
  8
RA_6120
 62
    11
 10
559580
 20
3254056
  0
VERTEX
  8
RA_6120
 62
    11
 10
559589
 20
3254017
  0
VERTEX
  8
RA_6120
 62
    11
 10
559593
 20
3253986
  0
SEQEND
  0
POLYLINE
  8
RA_6120
  6
CONTINUOUS
 62
    11
 66
     1
  0
VERTEX
  8
RA_6120
 62
    11
 10
557457
 20
3253747
  0
VERTEX
  8
RA_6120
 62
    11
 10
557462
 20
3253732
  0
VERTEX
  8
RA_6120
 62
    11
 10
557471
 20
3253704
  0
VERTEX
  8
RA_6120
 62
    11
 10
557556
 20
3253569
  0
VERTEX
  8
RA_6120
 62
    11
 10
557644
 20
3253448
  0
VERTEX
  8
RA_6120
 62
    11
 10
557664
 20
3253450
  0
VERTEX
  8
RA_6120
 62
    11
 10
557688
 20
3253465
  0
VERTEX
  8
RA_6120
 62
    11
 10
557756
 20
3253467
  0
VERTEX
  8
RA_6120
 62
    11
 10
557775
 20
3253473
  0
VERTEX
  8
RA_6120
 62
    11
 10
557798
 20
3253483
  0
VERTEX
  8
RA_6120
 62
    11
 10
557845
 20
3253490
  0
VERTEX
  8
RA_6120
 62
    11
 10
557890
 20
3253482
  0
VERTEX
  8
RA_6120
 62
    11
 10
557896
 20
3253458
  0
VERTEX
  8
RA_6120
 62
    11
 10
557922
 20
3253372
  0
VERTEX
  8
RA_6120
 62
    11
 10
557941
 20
3253306
  0
VERTEX
  8
RA_6120
 62
    11
 10
557956
 20
3253266
  0
VERTEX
  8
RA_6120
 62
    11
 10
557990
 20
3253117
  0
VERTEX
  8
RA_6120
 62
    11
 10
558019
 20
3253016
  0
VERTEX
  8
RA_6120
 62
    11
 10
558036
 20
3252988
  0
VERTEX
  8
RA_6120
 62
    11
 10
558059
 20
3252967
  0
VERTEX
  8
RA_6120
 62
    11
 10
558078
 20
3252966
  0
VERTEX
  8
RA_6120
 62
    11
 10
558099
 20
3252989
  0
VERTEX
  8
RA_6120
 62
    11
 10
558132
 20
3253013
  0
VERTEX
  8
RA_6120
 62
    11
 10
558222
 20
3253069
  0
VERTEX
  8
RA_6120
 62
    11
 10
558244
 20
3253088
  0
VERTEX
  8
RA_6120
 62
    11
 10
558262
 20
3253094
  0
VERTEX
  8
RA_6120
 62
    11
 10
558272
 20
3253081
  0
VERTEX
  8
RA_6120
 62
    11
 10
558279
 20
3253053
  0
VERTEX
  8
RA_6120
 62
    11
 10
558282
 20
3253013
  0
VERTEX
  8
RA_6120
 62
    11
 10
558293
 20
3252988
  0
VERTEX
  8
RA_6120
 62
    11
 10
558308
 20
3252980
  0
VERTEX
  8
RA_6120
 62
    11
 10
558370
 20
3253021
  0
VERTEX
  8
RA_6120
 62
    11
 10
558430
 20
3253053
  0
VERTEX
  8
RA_6120
 62
    11
 10
558559
 20
3253148
  0
VERTEX
  8
RA_6120
 62
    11
 10
558602
 20
3253173
  0
VERTEX
  8
RA_6120
 62
    11
 10
558623
 20
3253192
  0
VERTEX
  8
RA_6120
 62
    11
 10
558630
 20
3253210
  0
VERTEX
  8
RA_6120
 62
    11
 10
558625
 20
3253230
  0
VERTEX
  8
RA_6120
 62
    11
 10
558602
 20
3253291
  0
VERTEX
  8
RA_6120
 62
    11
 10
558589
 20
3253335
  0
VERTEX
  8
RA_6120
 62
    11
 10
558671
 20
3253398
  0
VERTEX
  8
RA_6120
 62
    11
 10
558763
 20
3253467
  0
VERTEX
  8
RA_6120
 62
    11
 10
558783
 20
3253480
  0
VERTEX
  8
RA_6120
 62
    11
 10
558788
 20
3253490
  0
VERTEX
  8
RA_6120
 62
    11
 10
558786
 20
3253506
  0
VERTEX
  8
RA_6120
 62
    11
 10
558782
 20
3253531
  0
VERTEX
  8
RA_6120
 62
    11
 10
558788
 20
3253541
  0
VERTEX
  8
RA_6120
 62
    11
 10
558803
 20
3253547
  0
VERTEX
  8
RA_6120
 62
    11
 10
558858
 20
3253566
  0
VERTEX
  8
RA_6120
 62
    11
 10
558953
 20
3253606
  0
VERTEX
  8
RA_6120
 62
    11
 10
558965
 20
3253612
  0
VERTEX
  8
RA_6120
 62
    11
 10
558965
 20
3253621
  0
VERTEX
  8
RA_6120
 62
    11
 10
558971
 20
3253629
  0
VERTEX
  8
RA_6120
 62
    11
 10
558982
 20
3253633
  0
VERTEX
  8
RA_6120
 62
    11
 10
558997
 20
3253642
  0
VERTEX
  8
RA_6120
 62
    11
 10
559000
 20
3253654
  0
VERTEX
  8
RA_6120
 62
    11
 10
558997
 20
3253677
  0
VERTEX
  8
RA_6120
 62
    11
 10
559016
 20
3253690
  0
VERTEX
  8
RA_6120
 62
    11
 10
559036
 20
3253690
  0
VERTEX
  8
RA_6120
 62
    11
 10
559051
 20
3253679
  0
VERTEX
  8
RA_6120
 62
    11
 10
559064
 20
3253658
  0
VERTEX
  8
RA_6120
 62
    11
 10
559081
 20
3253658
  0
VERTEX
  8
RA_6120
 62
    11
 10
559107
 20
3253669
  0
VERTEX
  8
RA_6120
 62
    11
 10
559121
 20
3253667
  0
VERTEX
  8
RA_6120
 62
    11
 10
559136
 20
3253646
  0
VERTEX
  8
RA_6120
 62
    11
 10
559150
 20
3253614
  0
VERTEX
  8
RA_6120
 62
    11
 10
559164
 20
3253587
  0
VERTEX
  8
RA_6120
 62
    11
 10
559178
 20
3253579
  0
VERTEX
  8
RA_6120
 62
    11
 10
559239
 20
3253600
  0
VERTEX
  8
RA_6120
 62
    11
 10
559312
 20
3253631
  0
VERTEX
  8
RA_6120
 62
    11
 10
559338
 20
3253644
  0
VERTEX
  8
RA_6120
 62
    11
 10
559351
 20
3253656
  0
VERTEX
  8
RA_6120
 62
    11
 10
559358
 20
3253671
  0
VERTEX
  8
RA_6120
 62
    11
 10
559342
 20
3253726
  0
VERTEX
  8
RA_6120
 62
    11
 10
559339
 20
3253748
  0
VERTEX
  8
RA_6120
 62
    11
 10
559352
 20
3253765
  0
VERTEX
  8
RA_6120
 62
    11
 10
559376
 20
3253779
  0
VERTEX
  8
RA_6120
 62
    11
 10
559515
 20
3253838
  0
VERTEX
  8
RA_6120
 62
    11
 10
559539
 20
3253846
  0
VERTEX
  8
RA_6120
 62
    11
 10
559559
 20
3253854
  0
VERTEX
  8
RA_6120
 62
    11
 10
559571
 20
3253860
  0
VERTEX
  8
RA_6120
 62
    11
 10
559574
 20
3253899
  0
VERTEX
  8
RA_6120
 62
    11
 10
559565
 20
3253951
  0
VERTEX
  8
RA_6120
 62
    11
 10
559552
 20
3253965
  0
VERTEX
  8
RA_6120
 62
    11
 10
559520
 20
3253971
  0
VERTEX
  8
RA_6120
 62
    11
 10
559484
 20
3253973
  0
VERTEX
  8
RA_6120
 62
    11
 10
559462
 20
3253981
  0
VERTEX
  8
RA_6120
 62
    11
 10
559463
 20
3253994
  0
VERTEX
  8
RA_6120
 62
    11
 10
559486
 20
3254013
  0
VERTEX
  8
RA_6120
 62
    11
 10
559504
 20
3254025
  0
VERTEX
  8
RA_6120
 62
    11
 10
559520
 20
3254034
  0
VERTEX
  8
RA_6120
 62
    11
 10
559524
 20
3254046
  0
VERTEX
  8
RA_6120
 62
    11
 10
559517
 20
3254067
  0
VERTEX
  8
RA_6120
 62
    11
 10
559515
 20
3254092
  0
VERTEX
  8
RA_6120
 62
    11
 10
559514
 20
3254107
  0
VERTEX
  8
RA_6120
 62
    11
 10
559526
 20
3254121
  0
VERTEX
  8
RA_6120
 62
    11
 10
559548
 20
3254129
  0
SEQEND
  0
POLYLINE
  8
RA_6120
  6
CONTINUOUS
 62
    11
 66
     1
  0
VERTEX
  8
RA_6120
 62
    11
 10
557457
 20
3253747
  0
VERTEX
  8
RA_6120
 62
    11
 10
557482
 20
3253743
  0
VERTEX
  8
RA_6120
 62
    11
 10
557516
 20
3253753
  0
VERTEX
  8
RA_6120
 62
    11
 10
557574
 20
3253764
  0
VERTEX
  8
RA_6120
 62
    11
 10
557632
 20
3253784
  0
VERTEX
  8
RA_6120
 62
    11
 10
557659
 20
3253791
  0
VERTEX
  8
RA_6120
 62
    11
 10
557691
 20
3253793
  0
SEQEND
  0
POLYLINE
  8
RA_6120
  6
CONTINUOUS
 62
    11
 66
     1
  0
VERTEX
  8
RA_6120
 62
    11
 10
554501
 20
3252544
  0
VERTEX
  8
RA_6120
 62
    11
 10
554545
 20
3252550
  0
VERTEX
  8
RA_6120
 62
    11
 10
554610
 20
3252559
  0
VERTEX
  8
RA_6120
 62
    11
 10
554690
 20
3252571
  0
VERTEX
  8
RA_6120
 62
    11
 10
554733
 20
3252582
  0
VERTEX
  8
RA_6120
 62
    11
 10
554761
 20
3252591
  0
VERTEX
  8
RA_6120
 62
    11
 10
554780
 20
3252604
  0
VERTEX
  8
RA_6120
 62
    11
 10
554795
 20
3252616
  0
VERTEX
  8
RA_6120
 62
    11
 10
554804
 20
3252630
  0
VERTEX
  8
RA_6120
 62
    11
 10
554809
 20
3252646
  0
VERTEX
  8
RA_6120
 62
    11
 10
554824
 20
3252649
  0
VERTEX
  8
RA_6120
 62
    11
 10
554845
 20
3252644
  0
VERTEX
  8
RA_6120
 62
    11
 10
554859
 20
3252635
  0
VERTEX
  8
RA_6120
 62
    11
 10
554874
 20
3252629
  0
VERTEX
  8
RA_6120
 62
    11
 10
554900
 20
3252646
  0
VERTEX
  8
RA_6120
 62
    11
 10
554999
 20
3252715
  0
VERTEX
  8
RA_6120
 62
    11
 10
555034
 20
3252750
  0
VERTEX
  8
RA_6120
 62
    11
 10
555133
 20
3252831
  0
VERTEX
  8
RA_6120
 62
    11
 10
555201
 20
3252890
  0
VERTEX
  8
RA_6120
 62
    11
 10
555248
 20
3252920
  0
VERTEX
  8
RA_6120
 62
    11
 10
555344
 20
3252954
  0
VERTEX
  8
RA_6120
 62
    11
 10
555417
 20
3252983
  0
VERTEX
  8
RA_6120
 62
    11
 10
555463
 20
3253006
  0
VERTEX
  8
RA_6120
 62
    11
 10
555487
 20
3253026
  0
VERTEX
  8
RA_6120
 62
    11
 10
555509
 20
3253058
  0
VERTEX
  8
RA_6120
 62
    11
 10
555545
 20
3253093
  0
VERTEX
  8
RA_6120
 62
    11
 10
555566
 20
3253112
  0
VERTEX
  8
RA_6120
 62
    11
 10
555584
 20
3253125
  0
VERTEX
  8
RA_6120
 62
    11
 10
555600
 20
3253127
  0
VERTEX
  8
RA_6120
 62
    11
 10
555619
 20
3253085
  0
VERTEX
  8
RA_6120
 62
    11
 10
555629
 20
3253085
  0
VERTEX
  8
RA_6120
 62
    11
 10
555661
 20
3253106
  0
VERTEX
  8
RA_6120
 62
    11
 10
555680
 20
3253122
  0
VERTEX
  8
RA_6120
 62
    11
 10
555698
 20
3253137
  0
VERTEX
  8
RA_6120
 62
    11
 10
555718
 20
3253156
  0
VERTEX
  8
RA_6120
 62
    11
 10
555738
 20
3253166
  0
VERTEX
  8
RA_6120
 62
    11
 10
555762
 20
3253166
  0
VERTEX
  8
RA_6120
 62
    11
 10
555775
 20
3253152
  0
VERTEX
  8
RA_6120
 62
    11
 10
555771
 20
3253129
  0
VERTEX
  8
RA_6120
 62
    11
 10
555755
 20
3253118
  0
VERTEX
  8
RA_6120
 62
    11
 10
555736
 20
3253106
  0
VERTEX
  8
RA_6120
 62
    11
 10
555700
 20
3253050
  0
VERTEX
  8
RA_6120
 62
    11
 10
555690
 20
3253000
  0
VERTEX
  8
RA_6120
 62
    11
 10
555689
 20
3252962
  0
VERTEX
  8
RA_6120
 62
    11
 10
555696
 20
3252935
  0
VERTEX
  8
RA_6120
 62
    11
 10
555707
 20
3252922
  0
VERTEX
  8
RA_6120
 62
    11
 10
555770
 20
3252956
  0
VERTEX
  8
RA_6120
 62
    11
 10
555809
 20
3252972
  0
VERTEX
  8
RA_6120
 62
    11
 10
555834
 20
3252987
  0
VERTEX
  8
RA_6120
 62
    11
 10
555862
 20
3253009
  0
VERTEX
  8
RA_6120
 62
    11
 10
555894
 20
3253026
  0
VERTEX
  8
RA_6120
 62
    11
 10
555914
 20
3253031
  0
VERTEX
  8
RA_6120
 62
    11
 10
555930
 20
3253027
  0
VERTEX
  8
RA_6120
 62
    11
 10
555993
 20
3253058
  0
VERTEX
  8
RA_6120
 62
    11
 10
556063
 20
3253096
  0
VERTEX
  8
RA_6120
 62
    11
 10
556082
 20
3253108
  0
VERTEX
  8
RA_6120
 62
    11
 10
556083
 20
3253122
  0
VERTEX
  8
RA_6120
 62
    11
 10
556069
 20
3253124
  0
VERTEX
  8
RA_6120
 62
    11
 10
556050
 20
3253132
  0
VERTEX
  8
RA_6120
 62
    11
 10
556035
 20
3253141
  0
VERTEX
  8
RA_6120
 62
    11
 10
556031
 20
3253155
  0
VERTEX
  8
RA_6120
 62
    11
 10
556036
 20
3253170
  0
VERTEX
  8
RA_6120
 62
    11
 10
556058
 20
3253199
  0
VERTEX
  8
RA_6120
 62
    11
 10
556071
 20
3253208
  0
VERTEX
  8
RA_6120
 62
    11
 10
556083
 20
3253215
  0
VERTEX
  8
RA_6120
 62
    11
 10
556092
 20
3253224
  0
VERTEX
  8
RA_6120
 62
    11
 10
556090
 20
3253238
  0
VERTEX
  8
RA_6120
 62
    11
 10
556089
 20
3253249
  0
VERTEX
  8
RA_6120
 62
    11
 10
556076
 20
3253272
  0
VERTEX
  8
RA_6120
 62
    11
 10
556059
 20
3253291
  0
VERTEX
  8
RA_6120
 62
    11
 10
556051
 20
3253289
  0
VERTEX
  8
RA_6120
 62
    11
 10
556028
 20
3253272
  0
VERTEX
  8
RA_6120
 62
    11
 10
556006
 20
3253253
  0
VERTEX
  8
RA_6120
 62
    11
 10
556000
 20
3253234
  0
VERTEX
  8
RA_6120
 62
    11
 10
555997
 20
3253216
  0
VERTEX
  8
RA_6120
 62
    11
 10
555973
 20
3253215
  0
VERTEX
  8
RA_6120
 62
    11
 10
555956
 20
3253224
  0
VERTEX
  8
RA_6120
 62
    11
 10
555945
 20
3253238
  0
VERTEX
  8
RA_6120
 62
    11
 10
555929
 20
3253280
  0
VERTEX
  8
RA_6120
 62
    11
 10
555917
 20
3253301
  0
VERTEX
  8
RA_6120
 62
    11
 10
555900
 20
3253326
  0
VERTEX
  8
RA_6120
 62
    11
 10
555868
 20
3253343
  0
VERTEX
  8
RA_6120
 62
    11
 10
555830
 20
3253368
  0
VERTEX
  8
RA_6120
 62
    11
 10
555800
 20
3253389
  0
VERTEX
  8
RA_6120
 62
    11
 10
555789
 20
3253401
  0
VERTEX
  8
RA_6120
 62
    11
 10
555793
 20
3253421
  0
VERTEX
  8
RA_6120
 62
    11
 10
555805
 20
3253437
  0
VERTEX
  8
RA_6120
 62
    11
 10
555823
 20
3253455
  0
VERTEX
  8
RA_6120
 62
    11
 10
555848
 20
3253485
  0
VERTEX
  8
RA_6120
 62
    11
 10
555869
 20
3253499
  0
VERTEX
  8
RA_6120
 62
    11
 10
555900
 20
3253525
  0
VERTEX
  8
RA_6120
 62
    11
 10
555914
 20
3253541
  0
VERTEX
  8
RA_6120
 62
    11
 10
555930
 20
3253558
  0
VERTEX
  8
RA_6120
 62
    11
 10
555945
 20
3253582
  0
VERTEX
  8
RA_6120
 62
    11
 10
556001
 20
3253635
  0
VERTEX
  8
RA_6120
 62
    11
 10
556043
 20
3253669
  0
VERTEX
  8
RA_6120
 62
    11
 10
556108
 20
3253717
  0
VERTEX
  8
RA_6120
 62
    11
 10
556145
 20
3253744
  0
VERTEX
  8
RA_6120
 62
    11
 10
556178
 20
3253769
  0
VERTEX
  8
RA_6120
 62
    11
 10
556192
 20
3253779
  0
VERTEX
  8
RA_6120
 62
    11
 10
556209
 20
3253786
  0
VERTEX
  8
RA_6120
 62
    11
 10
556213
 20
3253790
  0
VERTEX
  8
RA_6120
 62
    11
 10
556245
 20
3253794
  0
VERTEX
  8
RA_6120
 62
    11
 10
556307
 20
3253819
  0
VERTEX
  8
RA_6120
 62
    11
 10
556332
 20
3253829
  0
VERTEX
  8
RA_6120
 62
    11
 10
556379
 20
3253832
  0
VERTEX
  8
RA_6120
 62
    11
 10
556394
 20
3253830
  0
VERTEX
  8
RA_6120
 62
    11
 10
556412
 20
3253825
  0
VERTEX
  8
RA_6120
 62
    11
 10
556444
 20
3253813
  0
VERTEX
  8
RA_6120
 62
    11
 10
556545
 20
3253761
  0
VERTEX
  8
RA_6120
 62
    11
 10
556649
 20
3253714
  0
VERTEX
  8
RA_6120
 62
    11
 10
556671
 20
3253706
  0
VERTEX
  8
RA_6120
 62
    11
 10
556723
 20
3253706
  0
VERTEX
  8
RA_6120
 62
    11
 10
556752
 20
3253698
  0
VERTEX
  8
RA_6120
 62
    11
 10
556772
 20
3253699
  0
VERTEX
  8
RA_6120
 62
    11
 10
556789
 20
3253708
  0
VERTEX
  8
RA_6120
 62
    11
 10
556804
 20
3253707
  0
VERTEX
  8
RA_6120
 62
    11
 10
556835
 20
3253692
  0
VERTEX
  8
RA_6120
 62
    11
 10
556861
 20
3253682
  0
VERTEX
  8
RA_6120
 62
    11
 10
556879
 20
3253677
  0
VERTEX
  8
RA_6120
 62
    11
 10
556904
 20
3253679
  0
VERTEX
  8
RA_6120
 62
    11
 10
556924
 20
3253675
  0
VERTEX
  8
RA_6120
 62
    11
 10
556940
 20
3253652
  0
VERTEX
  8
RA_6120
 62
    11
 10
556933
 20
3253636
  0
VERTEX
  8
RA_6120
 62
    11
 10
556934
 20
3253620
  0
VERTEX
  8
RA_6120
 62
    11
 10
556958
 20
3253601
  0
VERTEX
  8
RA_6120
 62
    11
 10
557012
 20
3253575
  0
VERTEX
  8
RA_6120
 62
    11
 10
557039
 20
3253566
  0
VERTEX
  8
RA_6120
 62
    11
 10
557061
 20
3253563
  0
VERTEX
  8
RA_6120
 62
    11
 10
557094
 20
3253580
  0
VERTEX
  8
RA_6120
 62
    11
 10
557120
 20
3253599
  0
VERTEX
  8
RA_6120
 62
    11
 10
557133
 20
3253613
  0
VERTEX
  8
RA_6120
 62
    11
 10
557127
 20
3253627
  0
VERTEX
  8
RA_6120
 62
    11
 10
557115
 20
3253642
  0
VERTEX
  8
RA_6120
 62
    11
 10
557102
 20
3253657
  0
VERTEX
  8
RA_6120
 62
    11
 10
557097
 20
3253669
  0
VERTEX
  8
RA_6120
 62
    11
 10
557109
 20
3253679
  0
VERTEX
  8
RA_6120
 62
    11
 10
557132
 20
3253686
  0
VERTEX
  8
RA_6120
 62
    11
 10
557150
 20
3253702
  0
VERTEX
  8
RA_6120
 62
    11
 10
557166
 20
3253709
  0
VERTEX
  8
RA_6120
 62
    11
 10
557179
 20
3253716
  0
VERTEX
  8
RA_6120
 62
    11
 10
557197
 20
3253723
  0
VERTEX
  8
RA_6120
 62
    11
 10
557216
 20
3253730
  0
VERTEX
  8
RA_6120
 62
    11
 10
557236
 20
3253743
  0
VERTEX
  8
RA_6120
 62
    11
 10
557249
 20
3253731
  0
VERTEX
  8
RA_6120
 62
    11
 10
557254
 20
3253708
  0
VERTEX
  8
RA_6120
 62
    11
 10
557252
 20
3253688
  0
VERTEX
  8
RA_6120
 62
    11
 10
557243
 20
3253669
  0
VERTEX
  8
RA_6120
 62
    11
 10
557255
 20
3253663
  0
VERTEX
  8
RA_6120
 62
    11
 10
557272
 20
3253675
  0
VERTEX
  8
RA_6120
 62
    11
 10
557343
 20
3253723
  0
VERTEX
  8
RA_6120
 62
    11
 10
557361
 20
3253734
  0
VERTEX
  8
RA_6120
 62
    11
 10
557369
 20
3253748
  0
VERTEX
  8
RA_6120
 62
    11
 10
557362
 20
3253760
  0
VERTEX
  8
RA_6120
 62
    11
 10
557351
 20
3253765
  0
VERTEX
  8
RA_6120
 62
    11
 10
557338
 20
3253770
  0
VERTEX
  8
RA_6120
 62
    11
 10
557324
 20
3253781
  0
VERTEX
  8
RA_6120
 62
    11
 10
557304
 20
3253791
  0
VERTEX
  8
RA_6120
 62
    11
 10
557300
 20
3253806
  0
VERTEX
  8
RA_6120
 62
    11
 10
557312
 20
3253811
  0
VERTEX
  8
RA_6120
 62
    11
 10
557333
 20
3253813
  0
VERTEX
  8
RA_6120
 62
    11
 10
557359
 20
3253816
  0
VERTEX
  8
RA_6120
 62
    11
 10
557379
 20
3253816
  0
VERTEX
  8
RA_6120
 62
    11
 10
557396
 20
3253812
  0
VERTEX
  8
RA_6120
 62
    11
 10
557411
 20
3253809
  0
VERTEX
  8
RA_6120
 62
    11
 10
557478
 20
3253810
  0
VERTEX
  8
RA_6120
 62
    11
 10
557545
 20
3253810
  0
VERTEX
  8
RA_6120
 62
    11
 10
557575
 20
3253811
  0
VERTEX
  8
RA_6120
 62
    11
 10
557609
 20
3253823
  0
VERTEX
  8
RA_6120
 62
    11
 10
557628
 20
3253836
  0
VERTEX
  8
RA_6120
 62
    11
 10
557642
 20
3253844
  0
VERTEX
  8
RA_6120
 62
    11
 10
557660
 20
3253857
  0
VERTEX
  8
RA_6120
 62
    11
 10
557674
 20
3253861
  0
VERTEX
  8
RA_6120
 62
    11
 10
557686
 20
3253854
  0
VERTEX
  8
RA_6120
 62
    11
 10
557685
 20
3253832
  0
VERTEX
  8
RA_6120
 62
    11
 10
557691
 20
3253793
  0
SEQEND
  0
POLYLINE
  8
RA_6120
  6
CONTINUOUS
 62
    11
 66
     1
  0
VERTEX
  8
RA_6120
 62
    11
 10
553655
 20
3251584
  0
VERTEX
  8
RA_6120
 62
    11
 10
553670
 20
3251600
  0
VERTEX
  8
RA_6120
 62
    11
 10
553702
 20
3251641
  0
VERTEX
  8
RA_6120
 62
    11
 10
553696
 20
3251671
  0
VERTEX
  8
RA_6120
 62
    11
 10
553719
 20
3251711
  0
VERTEX
  8
RA_6120
 62
    11
 10
553746
 20
3251736
  0
VERTEX
  8
RA_6120
 62
    11
 10
553775
 20
3251754
  0
VERTEX
  8
RA_6120
 62
    11
 10
553820
 20
3251757
  0
VERTEX
  8
RA_6120
 62
    11
 10
553838
 20
3251761
  0
VERTEX
  8
RA_6120
 62
    11
 10
553881
 20
3251797
  0
VERTEX
  8
RA_6120
 62
    11
 10
553959
 20
3251870
  0
VERTEX
  8
RA_6120
 62
    11
 10
553967
 20
3251886
  0
VERTEX
  8
RA_6120
 62
    11
 10
553966
 20
3251901
  0
VERTEX
  8
RA_6120
 62
    11
 10
553929
 20
3251933
  0
VERTEX
  8
RA_6120
 62
    11
 10
553898
 20
3251942
  0
VERTEX
  8
RA_6120
 62
    11
 10
553889
 20
3251957
  0
VERTEX
  8
RA_6120
 62
    11
 10
553894
 20
3251971
  0
VERTEX
  8
RA_6120
 62
    11
 10
554046
 20
3252144
  0
VERTEX
  8
RA_6120
 62
    11
 10
554112
 20
3252230
  0
VERTEX
  8
RA_6120
 62
    11
 10
554141
 20
3252267
  0
VERTEX
  8
RA_6120
 62
    11
 10
554142
 20
3252269
  0
VERTEX
  8
RA_6120
 62
    11
 10
554196
 20
3252319
  0
VERTEX
  8
RA_6120
 62
    11
 10
554229
 20
3252359
  0
VERTEX
  8
RA_6120
 62
    11
 10
554260
 20
3252398
  0
VERTEX
  8
RA_6120
 62
    11
 10
554335
 20
3252461
  0
VERTEX
  8
RA_6120
 62
    11
 10
554379
 20
3252492
  0
VERTEX
  8
RA_6120
 62
    11
 10
554422
 20
3252508
  0
VERTEX
  8
RA_6120
 62
    11
 10
554481
 20
3252528
  0
VERTEX
  8
RA_6120
 62
    11
 10
554501
 20
3252544
  0
SEQEND
  0
POLYLINE
  8
RA_6120
  6
CONTINUOUS
 62
    11
 66
     1
  0
VERTEX
  8
RA_6120
 62
    11
 10
552183
 20
3250035
  0
VERTEX
  8
RA_6120
 62
    11
 10
552204
 20
3249988
  0
VERTEX
  8
RA_6120
 62
    11
 10
552235
 20
3249944
  0
VERTEX
  8
RA_6120
 62
    11
 10
552272
 20
3249907
  0
VERTEX
  8
RA_6120
 62
    11
 10
552291
 20
3249897
  0
SEQEND
  0
POLYLINE
  8
RA_6120
  6
CONTINUOUS
 62
    11
 66
     1
  0
VERTEX
  8
RA_6120
 62
    11
 10
550823
 20
3248983
  0
VERTEX
  8
RA_6120
 62
    11
 10
550823
 20
3248933
  0
VERTEX
  8
RA_6120
 62
    11
 10
550825
 20
3248895
  0
VERTEX
  8
RA_6120
 62
    11
 10
550821
 20
3248869
  0
VERTEX
  8
RA_6120
 62
    11
 10
550833
 20
3248859
  0
VERTEX
  8
RA_6120
 62
    11
 10
550853
 20
3248855
  0
VERTEX
  8
RA_6120
 62
    11
 10
550887
 20
3248853
  0
VERTEX
  8
RA_6120
 62
    11
 10
550896
 20
3248866
  0
VERTEX
  8
RA_6120
 62
    11
 10
550902
 20
3248894
  0
VERTEX
  8
RA_6120
 62
    11
 10
550903
 20
3248926
  0
VERTEX
  8
RA_6120
 62
    11
 10
550900
 20
3248962
  0
VERTEX
  8
RA_6120
 62
    11
 10
550903
 20
3248991
  0
VERTEX
  8
RA_6120
 62
    11
 10
550911
 20
3249016
  0
VERTEX
  8
RA_6120
 62
    11
 10
550931
 20
3249047
  0
VERTEX
  8
RA_6120
 62
    11
 10
550946
 20
3249101
  0
VERTEX
  8
RA_6120
 62
    11
 10
550947
 20
3249145
  0
VERTEX
  8
RA_6120
 62
    11
 10
550958
 20
3249181
  0
VERTEX
  8
RA_6120
 62
    11
 10
550970
 20
3249201
  0
VERTEX
  8
RA_6120
 62
    11
 10
551012
 20
3249238
  0
VERTEX
  8
RA_6120
 62
    11
 10
551049
 20
3249277
  0
VERTEX
  8
RA_6120
 62
    11
 10
551073
 20
3249299
  0
VERTEX
  8
RA_6120
 62
    11
 10
551085
 20
3249345
  0
VERTEX
  8
RA_6120
 62
    11
 10
551104
 20
3249376
  0
VERTEX
  8
RA_6120
 62
    11
 10
551121
 20
3249413
  0
VERTEX
  8
RA_6120
 62
    11
 10
551134
 20
3249437
  0
VERTEX
  8
RA_6120
 62
    11
 10
551149
 20
3249452
  0
VERTEX
  8
RA_6120
 62
    11
 10
551170
 20
3249468
  0
VERTEX
  8
RA_6120
 62
    11
 10
551224
 20
3249488
  0
VERTEX
  8
RA_6120
 62
    11
 10
551250
 20
3249488
  0
VERTEX
  8
RA_6120
 62
    11
 10
551268
 20
3249484
  0
VERTEX
  8
RA_6120
 62
    11
 10
551286
 20
3249472
  0
VERTEX
  8
RA_6120
 62
    11
 10
551304
 20
3249439
  0
VERTEX
  8
RA_6120
 62
    11
 10
551318
 20
3249410
  0
VERTEX
  8
RA_6120
 62
    11
 10
551355
 20
3249388
  0
VERTEX
  8
RA_6120
 62
    11
 10
551380
 20
3249378
  0
VERTEX
  8
RA_6120
 62
    11
 10
551392
 20
3249388
  0
VERTEX
  8
RA_6120
 62
    11
 10
551409
 20
3249405
  0
VERTEX
  8
RA_6120
 62
    11
 10
551425
 20
3249430
  0
VERTEX
  8
RA_6120
 62
    11
 10
551446
 20
3249448
  0
VERTEX
  8
RA_6120
 62
    11
 10
551472
 20
3249469
  0
VERTEX
  8
RA_6120
 62
    11
 10
551496
 20
3249495
  0
VERTEX
  8
RA_6120
 62
    11
 10
551509
 20
3249522
  0
VERTEX
  8
RA_6120
 62
    11
 10
551515
 20
3249555
  0
VERTEX
  8
RA_6120
 62
    11
 10
551532
 20
3249589
  0
VERTEX
  8
RA_6120
 62
    11
 10
551542
 20
3249603
  0
VERTEX
  8
RA_6120
 62
    11
 10
551546
 20
3249618
  0
VERTEX
  8
RA_6120
 62
    11
 10
551544
 20
3249635
  0
VERTEX
  8
RA_6120
 62
    11
 10
551551
 20
3249651
  0
VERTEX
  8
RA_6120
 62
    11
 10
551574
 20
3249670
  0
VERTEX
  8
RA_6120
 62
    11
 10
551593
 20
3249682
  0
VERTEX
  8
RA_6120
 62
    11
 10
551608
 20
3249694
  0
VERTEX
  8
RA_6120
 62
    11
 10
551607
 20
3249710
  0
VERTEX
  8
RA_6120
 62
    11
 10
551595
 20
3249720
  0
VERTEX
  8
RA_6120
 62
    11
 10
551572
 20
3249735
  0
VERTEX
  8
RA_6120
 62
    11
 10
551547
 20
3249754
  0
VERTEX
  8
RA_6120
 62
    11
 10
551441
 20
3249822
  0
VERTEX
  8
RA_6120
 62
    11
 10
551418
 20
3249843
  0
VERTEX
  8
RA_6120
 62
    11
 10
551391
 20
3249859
  0
VERTEX
  8
RA_6120
 62
    11
 10
551371
 20
3249865
  0
VERTEX
  8
RA_6120
 62
    11
 10
551365
 20
3249855
  0
VERTEX
  8
RA_6120
 62
    11
 10
551340
 20
3249804
  0
VERTEX
  8
RA_6120
 62
    11
 10
551330
 20
3249781
  0
VERTEX
  8
RA_6120
 62
    11
 10
551303
 20
3249750
  0
VERTEX
  8
RA_6120
 62
    11
 10
551290
 20
3249745
  0
VERTEX
  8
RA_6120
 62
    11
 10
551274
 20
3249734
  0
VERTEX
  8
RA_6120
 62
    11
 10
551251
 20
3249731
  0
VERTEX
  8
RA_6120
 62
    11
 10
551243
 20
3249749
  0
VERTEX
  8
RA_6120
 62
    11
 10
551251
 20
3249766
  0
VERTEX
  8
RA_6120
 62
    11
 10
551255
 20
3249811
  0
VERTEX
  8
RA_6120
 62
    11
 10
551257
 20
3249832
  0
VERTEX
  8
RA_6120
 62
    11
 10
551262
 20
3249856
  0
VERTEX
  8
RA_6120
 62
    11
 10
551280
 20
3249890
  0
VERTEX
  8
RA_6120
 62
    11
 10
551295
 20
3249917
  0
VERTEX
  8
RA_6120
 62
    11
 10
551337
 20
3249947
  0
VERTEX
  8
RA_6120
 62
    11
 10
551348
 20
3249955
  0
VERTEX
  8
RA_6120
 62
    11
 10
551367
 20
3249961
  0
VERTEX
  8
RA_6120
 62
    11
 10
551385
 20
3249951
  0
VERTEX
  8
RA_6120
 62
    11
 10
551427
 20
3249896
  0
VERTEX
  8
RA_6120
 62
    11
 10
551442
 20
3249879
  0
VERTEX
  8
RA_6120
 62
    11
 10
551465
 20
3249865
  0
VERTEX
  8
RA_6120
 62
    11
 10
551502
 20
3249849
  0
VERTEX
  8
RA_6120
 62
    11
 10
551524
 20
3249844
  0
VERTEX
  8
RA_6120
 62
    11
 10
551555
 20
3249831
  0
VERTEX
  8
RA_6120
 62
    11
 10
551575
 20
3249825
  0
VERTEX
  8
RA_6120
 62
    11
 10
551598
 20
3249817
  0
VERTEX
  8
RA_6120
 62
    11
 10
551616
 20
3249834
  0
VERTEX
  8
RA_6120
 62
    11
 10
551642
 20
3249845
  0
VERTEX
  8
RA_6120
 62
    11
 10
551673
 20
3249860
  0
VERTEX
  8
RA_6120
 62
    11
 10
551704
 20
3249867
  0
VERTEX
  8
RA_6120
 62
    11
 10
551757
 20
3249885
  0
VERTEX
  8
RA_6120
 62
    11
 10
551817
 20
3249911
  0
VERTEX
  8
RA_6120
 62
    11
 10
551883
 20
3249938
  0
VERTEX
  8
RA_6120
 62
    11
 10
551909
 20
3249945
  0
VERTEX
  8
RA_6120
 62
    11
 10
551929
 20
3249944
  0
VERTEX
  8
RA_6120
 62
    11
 10
551953
 20
3249951
  0
VERTEX
  8
RA_6120
 62
    11
 10
551997
 20
3249970
  0
VERTEX
  8
RA_6120
 62
    11
 10
552019
 20
3249982
  0
VERTEX
  8
RA_6120
 62
    11
 10
552029
 20
3249991
  0
VERTEX
  8
RA_6120
 62
    11
 10
552050
 20
3250005
  0
VERTEX
  8
RA_6120
 62
    11
 10
552073
 20
3250006
  0
VERTEX
  8
RA_6120
 62
    11
 10
552091
 20
3250006
  0
VERTEX
  8
RA_6120
 62
    11
 10
552104
 20
3250016
  0
VERTEX
  8
RA_6120
 62
    11
 10
552131
 20
3250025
  0
VERTEX
  8
RA_6120
 62
    11
 10
552166
 20
3250033
  0
VERTEX
  8
RA_6120
 62
    11
 10
552183
 20
3250035
  0
SEQEND
  0
POLYLINE
  8
RA_6120
  6
CONTINUOUS
 62
    11
 66
     1
  0
VERTEX
  8
RA_6120
 62
    11
 10
550793
 20
3248981
  0
VERTEX
  8
RA_6120
 62
    11
 10
550804
 20
3248980
  0
VERTEX
  8
RA_6120
 62
    11
 10
550823
 20
3248983
  0
SEQEND
  0
POLYLINE
  8
RA_6120
  6
CONTINUOUS
 62
    11
 66
     1
  0
VERTEX
  8
RA_6120
 62
    11
 10
550689
 20
3249466
  0
VERTEX
  8
RA_6120
 62
    11
 10
550738
 20
3249399
  0
VERTEX
  8
RA_6120
 62
    11
 10
550773
 20
3249328
  0
VERTEX
  8
RA_6120
 62
    11
 10
550793
 20
3249252
  0
VERTEX
  8
RA_6120
 62
    11
 10
550799
 20
3249170
  0
VERTEX
  8
RA_6120
 62
    11
 10
550801
 20
3249087
  0
VERTEX
  8
RA_6120
 62
    11
 10
550793
 20
3248981
  0
SEQEND
  0
POLYLINE
  8
RA_6120
  6
CONTINUOUS
 62
    11
 66
     1
  0
VERTEX
  8
RA_6120
 62
    11
 10
550689
 20
3249466
  0
VERTEX
  8
RA_6120
 62
    11
 10
550688
 20
3249496
  0
VERTEX
  8
RA_6120
 62
    11
 10
550690
 20
3249529
  0
VERTEX
  8
RA_6120
 62
    11
 10
550701
 20
3249600
  0
VERTEX
  8
RA_6120
 62
    11
 10
550728
 20
3249627
  0
VERTEX
  8
RA_6120
 62
    11
 10
550845
 20
3249721
  0
VERTEX
  8
RA_6120
 62
    11
 10
550889
 20
3249747
  0
VERTEX
  8
RA_6120
 62
    11
 10
550925
 20
3249784
  0
VERTEX
  8
RA_6120
 62
    11
 10
550947
 20
3249804
  0
VERTEX
  8
RA_6120
 62
    11
 10
550985
 20
3249801
  0
VERTEX
  8
RA_6120
 62
    11
 10
551016
 20
3249804
  0
VERTEX
  8
RA_6120
 62
    11
 10
551053
 20
3249809
  0
VERTEX
  8
RA_6120
 62
    11
 10
551182
 20
3249853
  0
VERTEX
  8
RA_6120
 62
    11
 10
551213
 20
3249883
  0
VERTEX
  8
RA_6120
 62
    11
 10
551270
 20
3249939
  0
VERTEX
  8
RA_6120
 62
    11
 10
551295
 20
3249972
  0
VERTEX
  8
RA_6120
 62
    11
 10
551317
 20
3249998
  0
VERTEX
  8
RA_6120
 62
    11
 10
551338
 20
3250060
  0
VERTEX
  8
RA_6120
 62
    11
 10
551369
 20
3250083
  0
VERTEX
  8
RA_6120
 62
    11
 10
551412
 20
3250124
  0
VERTEX
  8
RA_6120
 62
    11
 10
551454
 20
3250160
  0
VERTEX
  8
RA_6120
 62
    11
 10
551480
 20
3250180
  0
VERTEX
  8
RA_6120
 62
    11
 10
551499
 20
3250210
  0
VERTEX
  8
RA_6120
 62
    11
 10
551534
 20
3250263
  0
VERTEX
  8
RA_6120
 62
    11
 10
551553
 20
3250292
  0
VERTEX
  8
RA_6120
 62
    11
 10
551560
 20
3250317
  0
VERTEX
  8
RA_6120
 62
    11
 10
551559
 20
3250344
  0
VERTEX
  8
RA_6120
 62
    11
 10
551544
 20
3250430
  0
VERTEX
  8
RA_6120
 62
    11
 10
551530
 20
3250479
  0
VERTEX
  8
RA_6120
 62
    11
 10
551524
 20
3250531
  0
VERTEX
  8
RA_6120
 62
    11
 10
551537
 20
3250549
  0
VERTEX
  8
RA_6120
 62
    11
 10
551582
 20
3250607
  0
VERTEX
  8
RA_6120
 62
    11
 10
551598
 20
3250635
  0
VERTEX
  8
RA_6120
 62
    11
 10
551622
 20
3250657
  0
VERTEX
  8
RA_6120
 62
    11
 10
551661
 20
3250645
  0
VERTEX
  8
RA_6120
 62
    11
 10
551665
 20
3250644
  0
VERTEX
  8
RA_6120
 62
    11
 10
551720
 20
3250640
  0
VERTEX
  8
RA_6120
 62
    11
 10
551781
 20
3250638
  0
VERTEX
  8
RA_6120
 62
    11
 10
551857
 20
3250648
  0
VERTEX
  8
RA_6120
 62
    11
 10
551913
 20
3250653
  0
VERTEX
  8
RA_6120
 62
    11
 10
551960
 20
3250665
  0
VERTEX
  8
RA_6120
 62
    11
 10
551993
 20
3250679
  0
VERTEX
  8
RA_6120
 62
    11
 10
552031
 20
3250702
  0
VERTEX
  8
RA_6120
 62
    11
 10
552057
 20
3250732
  0
VERTEX
  8
RA_6120
 62
    11
 10
552103
 20
3250800
  0
VERTEX
  8
RA_6120
 62
    11
 10
552120
 20
3250829
  0
VERTEX
  8
RA_6120
 62
    11
 10
552129
 20
3250862
  0
VERTEX
  8
RA_6120
 62
    11
 10
552137
 20
3250889
  0
VERTEX
  8
RA_6120
 62
    11
 10
552161
 20
3250911
  0
VERTEX
  8
RA_6120
 62
    11
 10
552180
 20
3250933
  0
VERTEX
  8
RA_6120
 62
    11
 10
552242
 20
3251006
  0
VERTEX
  8
RA_6120
 62
    11
 10
552308
 20
3251073
  0
VERTEX
  8
RA_6120
 62
    11
 10
552345
 20
3251109
  0
VERTEX
  8
RA_6120
 62
    11
 10
552377
 20
3251147
  0
VERTEX
  8
RA_6120
 62
    11
 10
552397
 20
3251161
  0
VERTEX
  8
RA_6120
 62
    11
 10
552425
 20
3251175
  0
VERTEX
  8
RA_6120
 62
    11
 10
552449
 20
3251199
  0
VERTEX
  8
RA_6120
 62
    11
 10
552477
 20
3251261
  0
VERTEX
  8
RA_6120
 62
    11
 10
552488
 20
3251282
  0
VERTEX
  8
RA_6120
 62
    11
 10
552510
 20
3251308
  0
VERTEX
  8
RA_6120
 62
    11
 10
552550
 20
3251341
  0
VERTEX
  8
RA_6120
 62
    11
 10
552582
 20
3251390
  0
VERTEX
  8
RA_6120
 62
    11
 10
552599
 20
3251437
  0
VERTEX
  8
RA_6120
 62
    11
 10
552618
 20
3251476
  0
VERTEX
  8
RA_6120
 62
    11
 10
552653
 20
3251530
  0
VERTEX
  8
RA_6120
 62
    11
 10
552708
 20
3251588
  0
VERTEX
  8
RA_6120
 62
    11
 10
552735
 20
3251598
  0
VERTEX
  8
RA_6120
 62
    11
 10
552767
 20
3251596
  0
VERTEX
  8
RA_6120
 62
    11
 10
552818
 20
3251596
  0
VERTEX
  8
RA_6120
 62
    11
 10
552823
 20
3251600
  0
VERTEX
  8
RA_6120
 62
    11
 10
552860
 20
3251626
  0
VERTEX
  8
RA_6120
 62
    11
 10
552896
 20
3251665
  0
VERTEX
  8
RA_6120
 62
    11
 10
552918
 20
3251678
  0
VERTEX
  8
RA_6120
 62
    11
 10
552955
 20
3251661
  0
VERTEX
  8
RA_6120
 62
    11
 10
552971
 20
3251644
  0
VERTEX
  8
RA_6120
 62
    11
 10
552976
 20
3251619
  0
VERTEX
  8
RA_6120
 62
    11
 10
552967
 20
3251548
  0
VERTEX
  8
RA_6120
 62
    11
 10
552965
 20
3251517
  0
SEQEND
  0
POLYLINE
  8
RA_6120
  6
CONTINUOUS
 62
    11
 66
     1
  0
VERTEX
  8
RA_6120
 62
    11
 10
552965
 20
3251517
  0
VERTEX
  8
RA_6120
 62
    11
 10
553000
 20
3251481
  0
VERTEX
  8
RA_6120
 62
    11
 10
553011
 20
3251466
  0
SEQEND
  0
POLYLINE
  8
RA_6120
  6
CONTINUOUS
 62
    11
 66
     1
  0
VERTEX
  8
RA_6120
 62
    11
 10
553011
 20
3251466
  0
VERTEX
  8
RA_6120
 62
    11
 10
553062
 20
3251475
  0
VERTEX
  8
RA_6120
 62
    11
 10
553090
 20
3251484
  0
VERTEX
  8
RA_6120
 62
    11
 10
553116
 20
3251500
  0
VERTEX
  8
RA_6120
 62
    11
 10
553145
 20
3251532
  0
VERTEX
  8
RA_6120
 62
    11
 10
553176
 20
3251552
  0
VERTEX
  8
RA_6120
 62
    11
 10
553203
 20
3251580
  0
VERTEX
  8
RA_6120
 62
    11
 10
553241
 20
3251619
  0
VERTEX
  8
RA_6120
 62
    11
 10
553268
 20
3251642
  0
VERTEX
  8
RA_6120
 62
    11
 10
553314
 20
3251659
  0
VERTEX
  8
RA_6120
 62
    11
 10
553348
 20
3251665
  0
VERTEX
  8
RA_6120
 62
    11
 10
553379
 20
3251673
  0
VERTEX
  8
RA_6120
 62
    11
 10
553437
 20
3251698
  0
VERTEX
  8
RA_6120
 62
    11
 10
553467
 20
3251717
  0
VERTEX
  8
RA_6120
 62
    11
 10
553478
 20
3251740
  0
VERTEX
  8
RA_6120
 62
    11
 10
553500
 20
3251761
  0
VERTEX
  8
RA_6120
 62
    11
 10
553577
 20
3251833
  0
VERTEX
  8
RA_6120
 62
    11
 10
553681
 20
3251921
  0
VERTEX
  8
RA_6120
 62
    11
 10
553751
 20
3251986
  0
VERTEX
  8
RA_6120
 62
    11
 10
553751
 20
3251998
  0
VERTEX
  8
RA_6120
 62
    11
 10
553660
 20
3252092
  0
VERTEX
  8
RA_6120
 62
    11
 10
553627
 20
3252116
  0
VERTEX
  8
RA_6120
 62
    11
 10
553587
 20
3252134
  0
VERTEX
  8
RA_6120
 62
    11
 10
553562
 20
3252127
  0
VERTEX
  8
RA_6120
 62
    11
 10
553535
 20
3252099
  0
VERTEX
  8
RA_6120
 62
    11
 10
553485
 20
3252046
  0
VERTEX
  8
RA_6120
 62
    11
 10
553454
 20
3252022
  0
VERTEX
  8
RA_6120
 62
    11
 10
553397
 20
3251967
  0
VERTEX
  8
RA_6120
 62
    11
 10
553322
 20
3251891
  0
VERTEX
  8
RA_6120
 62
    11
 10
553271
 20
3251845
  0
VERTEX
  8
RA_6120
 62
    11
 10
553228
 20
3251806
  0
VERTEX
  8
RA_6120
 62
    11
 10
553212
 20
3251802
  0
VERTEX
  8
RA_6120
 62
    11
 10
553181
 20
3251823
  0
VERTEX
  8
RA_6120
 62
    11
 10
553157
 20
3251848
  0
VERTEX
  8
RA_6120
 62
    11
 10
553141
 20
3251865
  0
VERTEX
  8
RA_6120
 62
    11
 10
553128
 20
3251890
  0
VERTEX
  8
RA_6120
 62
    11
 10
553174
 20
3251974
  0
VERTEX
  8
RA_6120
 62
    11
 10
553211
 20
3252069
  0
VERTEX
  8
RA_6120
 62
    11
 10
553242
 20
3252115
  0
VERTEX
  8
RA_6120
 62
    11
 10
553260
 20
3252145
  0
VERTEX
  8
RA_6120
 62
    11
 10
553284
 20
3252195
  0
VERTEX
  8
RA_6120
 62
    11
 10
553303
 20
3252222
  0
VERTEX
  8
RA_6120
 62
    11
 10
553327
 20
3252240
  0
VERTEX
  8
RA_6120
 62
    11
 10
553352
 20
3252253
  0
VERTEX
  8
RA_6120
 62
    11
 10
553365
 20
3252275
  0
VERTEX
  8
RA_6120
 62
    11
 10
553349
 20
3252285
  0
VERTEX
  8
RA_6120
 62
    11
 10
553336
 20
3252301
  0
VERTEX
  8
RA_6120
 62
    11
 10
553338
 20
3252318
  0
VERTEX
  8
RA_6120
 62
    11
 10
553363
 20
3252353
  0
VERTEX
  8
RA_6120
 62
    11
 10
553377
 20
3252384
  0
VERTEX
  8
RA_6120
 62
    11
 10
553403
 20
3252446
  0
VERTEX
  8
RA_6120
 62
    11
 10
553427
 20
3252508
  0
VERTEX
  8
RA_6120
 62
    11
 10
553471
 20
3252560
  0
VERTEX
  8
RA_6120
 62
    11
 10
553517
 20
3252603
  0
VERTEX
  8
RA_6120
 62
    11
 10
553567
 20
3252635
  0
VERTEX
  8
RA_6120
 62
    11
 10
553592
 20
3252652
  0
VERTEX
  8
RA_6120
 62
    11
 10
553605
 20
3252660
  0
VERTEX
  8
RA_6120
 62
    11
 10
553645
 20
3252691
  0
VERTEX
  8
RA_6120
 62
    11
 10
553693
 20
3252737
  0
VERTEX
  8
RA_6120
 62
    11
 10
553721
 20
3252752
  0
VERTEX
  8
RA_6120
 62
    11
 10
553762
 20
3252768
  0
VERTEX
  8
RA_6120
 62
    11
 10
553793
 20
3252792
  0
VERTEX
  8
RA_6120
 62
    11
 10
553877
 20
3252856
  0
VERTEX
  8
RA_6120
 62
    11
 10
553915
 20
3252885
  0
VERTEX
  8
RA_6120
 62
    11
 10
553956
 20
3252933
  0
VERTEX
  8
RA_6120
 62
    11
 10
553984
 20
3252981
  0
VERTEX
  8
RA_6120
 62
    11
 10
553997
 20
3253055
  0
VERTEX
  8
RA_6120
 62
    11
 10
554014
 20
3253102
  0
VERTEX
  8
RA_6120
 62
    11
 10
554030
 20
3253124
  0
VERTEX
  8
RA_6120
 62
    11
 10
554066
 20
3253179
  0
VERTEX
  8
RA_6120
 62
    11
 10
554090
 20
3253190
  0
VERTEX
  8
RA_6120
 62
    11
 10
554133
 20
3253203
  0
VERTEX
  8
RA_6120
 62
    11
 10
554172
 20
3253226
  0
VERTEX
  8
RA_6120
 62
    11
 10
554173
 20
3253227
  0
VERTEX
  8
RA_6120
 62
    11
 10
554211
 20
3253261
  0
VERTEX
  8
RA_6120
 62
    11
 10
554241
 20
3253307
  0
VERTEX
  8
RA_6120
 62
    11
 10
554267
 20
3253353
  0
VERTEX
  8
RA_6120
 62
    11
 10
554297
 20
3253381
  0
VERTEX
  8
RA_6120
 62
    11
 10
554324
 20
3253403
  0
VERTEX
  8
RA_6120
 62
    11
 10
554344
 20
3253425
  0
VERTEX
  8
RA_6120
 62
    11
 10
554367
 20
3253450
  0
VERTEX
  8
RA_6120
 62
    11
 10
554391
 20
3253476
  0
VERTEX
  8
RA_6120
 62
    11
 10
554422
 20
3253517
  0
VERTEX
  8
RA_6120
 62
    11
 10
554494
 20
3253588
  0
VERTEX
  8
RA_6120
 62
    11
 10
554612
 20
3253715
  0
VERTEX
  8
RA_6120
 62
    11
 10
554634
 20
3253719
  0
VERTEX
  8
RA_6120
 62
    11
 10
554662
 20
3253728
  0
VERTEX
  8
RA_6120
 62
    11
 10
554679
 20
3253739
  0
VERTEX
  8
RA_6120
 62
    11
 10
554675
 20
3253757
  0
VERTEX
  8
RA_6120
 62
    11
 10
554674
 20
3253762
  0
VERTEX
  8
RA_6120
 62
    11
 10
554664
 20
3253774
  0
VERTEX
  8
RA_6120
 62
    11
 10
554663
 20
3253797
  0
VERTEX
  8
RA_6120
 62
    11
 10
554683
 20
3253828
  0
VERTEX
  8
RA_6120
 62
    11
 10
554705
 20
3253851
  0
VERTEX
  8
RA_6120
 62
    11
 10
554788
 20
3253943
  0
VERTEX
  8
RA_6120
 62
    11
 10
554884
 20
3254058
  0
VERTEX
  8
RA_6120
 62
    11
 10
554952
 20
3254115
  0
VERTEX
  8
RA_6120
 62
    11
 10
555053
 20
3254199
  0
VERTEX
  8
RA_6120
 62
    11
 10
555080
 20
3254232
  0
VERTEX
  8
RA_6120
 62
    11
 10
555097
 20
3254271
  0
VERTEX
  8
RA_6120
 62
    11
 10
555111
 20
3254285
  0
VERTEX
  8
RA_6120
 62
    11
 10
555121
 20
3254309
  0
VERTEX
  8
RA_6120
 62
    11
 10
555110
 20
3254326
  0
VERTEX
  8
RA_6120
 62
    11
 10
555097
 20
3254329
  0
VERTEX
  8
RA_6120
 62
    11
 10
555087
 20
3254330
  0
VERTEX
  8
RA_6120
 62
    11
 10
555071
 20
3254318
  0
VERTEX
  8
RA_6120
 62
    11
 10
555061
 20
3254300
  0
VERTEX
  8
RA_6120
 62
    11
 10
555059
 20
3254278
  0
VERTEX
  8
RA_6120
 62
    11
 10
555046
 20
3254250
  0
VERTEX
  8
RA_6120
 62
    11
 10
555023
 20
3254232
  0
VERTEX
  8
RA_6120
 62
    11
 10
554916
 20
3254149
  0
VERTEX
  8
RA_6120
 62
    11
 10
554852
 20
3254097
  0
VERTEX
  8
RA_6120
 62
    11
 10
554839
 20
3254081
  0
VERTEX
  8
RA_6120
 62
    11
 10
554824
 20
3254071
  0
VERTEX
  8
RA_6120
 62
    11
 10
554798
 20
3254066
  0
VERTEX
  8
RA_6120
 62
    11
 10
554794
 20
3254050
  0
VERTEX
  8
RA_6120
 62
    11
 10
554803
 20
3254036
  0
VERTEX
  8
RA_6120
 62
    11
 10
554753
 20
3253986
  0
VERTEX
  8
RA_6120
 62
    11
 10
554716
 20
3253941
  0
VERTEX
  8
RA_6120
 62
    11
 10
554660
 20
3253870
  0
VERTEX
  8
RA_6120
 62
    11
 10
554641
 20
3253844
  0
VERTEX
  8
RA_6120
 62
    11
 10
554607
 20
3253816
  0
VERTEX
  8
RA_6120
 62
    11
 10
554592
 20
3253797
  0
VERTEX
  8
RA_6120
 62
    11
 10
554568
 20
3253780
  0
VERTEX
  8
RA_6120
 62
    11
 10
554531
 20
3253739
  0
VERTEX
  8
RA_6120
 62
    11
 10
554438
 20
3253647
  0
VERTEX
  8
RA_6120
 62
    11
 10
554419
 20
3253659
  0
VERTEX
  8
RA_6120
 62
    11
 10
554354
 20
3253733
  0
VERTEX
  8
RA_6120
 62
    11
 10
554346
 20
3253756
  0
VERTEX
  8
RA_6120
 62
    11
 10
554346
 20
3253860
  0
VERTEX
  8
RA_6120
 62
    11
 10
554363
 20
3253883
  0
VERTEX
  8
RA_6120
 62
    11
 10
554387
 20
3253899
  0
VERTEX
  8
RA_6120
 62
    11
 10
554400
 20
3253914
  0
VERTEX
  8
RA_6120
 62
    11
 10
554425
 20
3253956
  0
VERTEX
  8
RA_6120
 62
    11
 10
554440
 20
3253996
  0
VERTEX
  8
RA_6120
 62
    11
 10
554475
 20
3254105
  0
VERTEX
  8
RA_6120
 62
    11
 10
554512
 20
3254181
  0
VERTEX
  8
RA_6120
 62
    11
 10
554523
 20
3254213
  0
VERTEX
  8
RA_6120
 62
    11
 10
554552
 20
3254297
  0
VERTEX
  8
RA_6120
 62
    11
 10
554554
 20
3254323
  0
VERTEX
  8
RA_6120
 62
    11
 10
554560
 20
3254341
  0
VERTEX
  8
RA_6120
 62
    11
 10
554595
 20
3254359
  0
VERTEX
  8
RA_6120
 62
    11
 10
554625
 20
3254378
  0
VERTEX
  8
RA_6120
 62
    11
 10
554655
 20
3254388
  0
VERTEX
  8
RA_6120
 62
    11
 10
554673
 20
3254403
  0
VERTEX
  8
RA_6120
 62
    11
 10
554690
 20
3254428
  0
VERTEX
  8
RA_6120
 62
    11
 10
554745
 20
3254549
  0
VERTEX
  8
RA_6120
 62
    11
 10
554791
 20
3254609
  0
VERTEX
  8
RA_6120
 62
    11
 10
554808
 20
3254636
  0
VERTEX
  8
RA_6120
 62
    11
 10
554843
 20
3254671
  0
VERTEX
  8
RA_6120
 62
    11
 10
554846
 20
3254690
  0
VERTEX
  8
RA_6120
 62
    11
 10
554840
 20
3254716
  0
VERTEX
  8
RA_6120
 62
    11
 10
554847
 20
3254756
  0
VERTEX
  8
RA_6120
 62
    11
 10
554843
 20
3254784
  0
VERTEX
  8
RA_6120
 62
    11
 10
554843
 20
3254796
  0
VERTEX
  8
RA_6120
 62
    11
 10
554848
 20
3254812
  0
SEQEND
  0
POLYLINE
  8
RA_6120
  6
CONTINUOUS
 62
    11
 66
     1
  0
VERTEX
  8
RA_6120
 62
    11
 10
554848
 20
3254812
  0
VERTEX
  8
RA_6120
 62
    11
 10
554895
 20
3254791
  0
VERTEX
  8
RA_6120
 62
    11
 10
554954
 20
3254769
  0
VERTEX
  8
RA_6120
 62
    11
 10
555014
 20
3254748
  0
VERTEX
  8
RA_6120
 62
    11
 10
555068
 20
3254749
  0
VERTEX
  8
RA_6120
 62
    11
 10
555110
 20
3254753
  0
VERTEX
  8
RA_6120
 62
    11
 10
555181
 20
3254777
  0
VERTEX
  8
RA_6120
 62
    11
 10
555192
 20
3254780
  0
SEQEND
  0
POLYLINE
  8
RA_6120
  6
CONTINUOUS
 62
    11
 66
     1
  0
VERTEX
  8
RA_6120
 62
    11
 10
555192
 20
3254780
  0
VERTEX
  8
RA_6120
 62
    11
 10
555226
 20
3254790
  0
VERTEX
  8
RA_6120
 62
    11
 10
555271
 20
3254799
  0
VERTEX
  8
RA_6120
 62
    11
 10
555312
 20
3254801
  0
VERTEX
  8
RA_6120
 62
    11
 10
555362
 20
3254801
  0
VERTEX
  8
RA_6120
 62
    11
 10
555408
 20
3254807
  0
VERTEX
  8
RA_6120
 62
    11
 10
555446
 20
3254826
  0
VERTEX
  8
RA_6120
 62
    11
 10
555487
 20
3254831
  0
VERTEX
  8
RA_6120
 62
    11
 10
555527
 20
3254833
  0
VERTEX
  8
RA_6120
 62
    11
 10
555556
 20
3254846
  0
VERTEX
  8
RA_6120
 62
    11
 10
555584
 20
3254875
  0
VERTEX
  8
RA_6120
 62
    11
 10
555603
 20
3254911
  0
VERTEX
  8
RA_6120
 62
    11
 10
555617
 20
3254954
  0
VERTEX
  8
RA_6120
 62
    11
 10
555607
 20
3255003
  0
VERTEX
  8
RA_6120
 62
    11
 10
555621
 20
3255025
  0
VERTEX
  8
RA_6120
 62
    11
 10
555640
 20
3255047
  0
SEQEND
  0
POLYLINE
  8
RA_6120
  6
CONTINUOUS
 62
    11
 66
     1
  0
VERTEX
  8
RA_6120
 62
    11
 10
555640
 20
3255047
  0
VERTEX
  8
RA_6120
 62
    11
 10
555644
 20
3255079
  0
VERTEX
  8
RA_6120
 62
    11
 10
555651
 20
3255159
  0
VERTEX
  8
RA_6120
 62
    11
 10
555661
 20
3255202
  0
VERTEX
  8
RA_6120
 62
    11
 10
555656
 20
3255213
  0
VERTEX
  8
RA_6120
 62
    11
 10
555669
 20
3255224
  0
VERTEX
  8
RA_6120
 62
    11
 10
555704
 20
3255216
  0
VERTEX
  8
RA_6120
 62
    11
 10
555748
 20
3255201
  0
VERTEX
  8
RA_6120
 62
    11
 10
555803
 20
3255197
  0
VERTEX
  8
RA_6120
 62
    11
 10
555830
 20
3255212
  0
VERTEX
  8
RA_6120
 62
    11
 10
555858
 20
3255229
  0
VERTEX
  8
RA_6120
 62
    11
 10
555883
 20
3255231
  0
VERTEX
  8
RA_6120
 62
    11
 10
555931
 20
3255236
  0
VERTEX
  8
RA_6120
 62
    11
 10
555988
 20
3255243
  0
VERTEX
  8
RA_6120
 62
    11
 10
556029
 20
3255264
  0
VERTEX
  8
RA_6120
 62
    11
 10
556065
 20
3255269
  0
VERTEX
  8
RA_6120
 62
    11
 10
556092
 20
3255277
  0
VERTEX
  8
RA_6120
 62
    11
 10
556123
 20
3255278
  0
VERTEX
  8
RA_6120
 62
    11
 10
556159
 20
3255293
  0
VERTEX
  8
RA_6120
 62
    11
 10
556186
 20
3255308
  0
VERTEX
  8
RA_6120
 62
    11
 10
556215
 20
3255333
  0
VERTEX
  8
RA_6120
 62
    11
 10
556246
 20
3255369
  0
VERTEX
  8
RA_6120
 62
    11
 10
556285
 20
3255391
  0
VERTEX
  8
RA_6120
 62
    11
 10
556314
 20
3255404
  0
SEQEND
  0
POLYLINE
  8
RA_6120
  6
CONTINUOUS
 62
    11
 66
     1
  0
VERTEX
  8
RA_6120
 62
    11
 10
556314
 20
3255404
  0
VERTEX
  8
RA_6120
 62
    11
 10
556379
 20
3255501
  0
VERTEX
  8
RA_6120
 62
    11
 10
556408
 20
3255546
  0
SEQEND
  0
POLYLINE
  8
RA_6120
  6
CONTINUOUS
 62
    11
 66
     1
  0
VERTEX
  8
RA_6120
 62
    11
 10
556408
 20
3255546
  0
VERTEX
  8
RA_6120
 62
    11
 10
556445
 20
3255571
  0
SEQEND
  0
POLYLINE
  8
RA_6120
  6
CONTINUOUS
 62
    11
 66
     1
  0
VERTEX
  8
RA_6120
 62
    11
 10
556445
 20
3255571
  0
VERTEX
  8
RA_6120
 62
    11
 10
556502
 20
3255566
  0
VERTEX
  8
RA_6120
 62
    11
 10
556552
 20
3255561
  0
VERTEX
  8
RA_6120
 62
    11
 10
556592
 20
3255564
  0
VERTEX
  8
RA_6120
 62
    11
 10
556623
 20
3255559
  0
VERTEX
  8
RA_6120
 62
    11
 10
556700
 20
3255526
  0
VERTEX
  8
RA_6120
 62
    11
 10
556790
 20
3255484
  0
VERTEX
  8
RA_6120
 62
    11
 10
556848
 20
3255468
  0
VERTEX
  8
RA_6120
 62
    11
 10
556890
 20
3255469
  0
VERTEX
  8
RA_6120
 62
    11
 10
556939
 20
3255470
  0
VERTEX
  8
RA_6120
 62
    11
 10
556971
 20
3255471
  0
VERTEX
  8
RA_6120
 62
    11
 10
557013
 20
3255476
  0
VERTEX
  8
RA_6120
 62
    11
 10
557075
 20
3255492
  0
VERTEX
  8
RA_6120
 62
    11
 10
557176
 20
3255526
  0
VERTEX
  8
RA_6120
 62
    11
 10
557304
 20
3255567
  0
VERTEX
  8
RA_6120
 62
    11
 10
557335
 20
3255579
  0
VERTEX
  8
RA_6120
 62
    11
 10
557355
 20
3255549
  0
VERTEX
  8
RA_6120
 62
    11
 10
557367
 20
3255516
  0
VERTEX
  8
RA_6120
 62
    11
 10
557380
 20
3255492
  0
VERTEX
  8
RA_6120
 62
    11
 10
557417
 20
3255450
  0
VERTEX
  8
RA_6120
 62
    11
 10
557442
 20
3255437
  0
VERTEX
  8
RA_6120
 62
    11
 10
557477
 20
3255423
  0
VERTEX
  8
RA_6120
 62
    11
 10
557506
 20
3255419
  0
VERTEX
  8
RA_6120
 62
    11
 10
557521
 20
3255418
  0
VERTEX
  8
RA_6120
 62
    11
 10
557553
 20
3255433
  0
VERTEX
  8
RA_6120
 62
    11
 10
557589
 20
3255454
  0
VERTEX
  8
RA_6120
 62
    11
 10
557617
 20
3255477
  0
VERTEX
  8
RA_6120
 62
    11
 10
557634
 20
3255485
  0
VERTEX
  8
RA_6120
 62
    11
 10
557661
 20
3255469
  0
VERTEX
  8
RA_6120
 62
    11
 10
557677
 20
3255444
  0
VERTEX
  8
RA_6120
 62
    11
 10
557687
 20
3255423
  0
VERTEX
  8
RA_6120
 62
    11
 10
557711
 20
3255385
  0
VERTEX
  8
RA_6120
 62
    11
 10
557744
 20
3255390
  0
VERTEX
  8
RA_6120
 62
    11
 10
557782
 20
3255413
  0
VERTEX
  8
RA_6120
 62
    11
 10
557818
 20
3255431
  0
VERTEX
  8
RA_6120
 62
    11
 10
557883
 20
3255473
  0
VERTEX
  8
RA_6120
 62
    11
 10
557876
 20
3255496
  0
VERTEX
  8
RA_6120
 62
    11
 10
557864
 20
3255515
  0
VERTEX
  8
RA_6120
 62
    11
 10
557817
 20
3255581
  0
VERTEX
  8
RA_6120
 62
    11
 10
557812
 20
3255608
  0
VERTEX
  8
RA_6120
 62
    11
 10
557836
 20
3255627
  0
VERTEX
  8
RA_6120
 62
    11
 10
557861
 20
3255640
  0
VERTEX
  8
RA_6120
 62
    11
 10
557940
 20
3255652
  0
VERTEX
  8
RA_6120
 62
    11
 10
557985
 20
3255661
  0
VERTEX
  8
RA_6120
 62
    11
 10
558121
 20
3255654
  0
VERTEX
  8
RA_6120
 62
    11
 10
558172
 20
3255649
  0
VERTEX
  8
RA_6120
 62
    11
 10
558208
 20
3255662
  0
VERTEX
  8
RA_6120
 62
    11
 10
558230
 20
3255658
  0
VERTEX
  8
RA_6120
 62
    11
 10
558245
 20
3255674
  0
VERTEX
  8
RA_6120
 62
    11
 10
558254
 20
3255687
  0
VERTEX
  8
RA_6120
 62
    11
 10
558294
 20
3255695
  0
VERTEX
  8
RA_6120
 62
    11
 10
558332
 20
3255697
  0
VERTEX
  8
RA_6120
 62
    11
 10
558391
 20
3255699
  0
VERTEX
  8
RA_6120
 62
    11
 10
558400
 20
3255701
  0
VERTEX
  8
RA_6120
 62
    11
 10
558415
 20
3255705
  0
VERTEX
  8
RA_6120
 62
    11
 10
558440
 20
3255712
  0
VERTEX
  8
RA_6120
 62
    11
 10
558472
 20
3255724
  0
VERTEX
  8
RA_6120
 62
    11
 10
558676
 20
3255810
  0
VERTEX
  8
RA_6120
 62
    11
 10
558745
 20
3255829
  0
VERTEX
  8
RA_6120
 62
    11
 10
558750
 20
3255841
  0
VERTEX
  8
RA_6120
 62
    11
 10
558751
 20
3255843
  0
VERTEX
  8
RA_6120
 62
    11
 10
558731
 20
3255852
  0
VERTEX
  8
RA_6120
 62
    11
 10
558710
 20
3255869
  0
VERTEX
  8
RA_6120
 62
    11
 10
558692
 20
3255883
  0
VERTEX
  8
RA_6120
 62
    11
 10
558670
 20
3255899
  0
VERTEX
  8
RA_6120
 62
    11
 10
558657
 20
3255923
  0
VERTEX
  8
RA_6120
 62
    11
 10
558653
 20
3255945
  0
VERTEX
  8
RA_6120
 62
    11
 10
558669
 20
3255959
  0
VERTEX
  8
RA_6120
 62
    11
 10
558701
 20
3255980
  0
VERTEX
  8
RA_6120
 62
    11
 10
558722
 20
3256011
  0
VERTEX
  8
RA_6120
 62
    11
 10
558745
 20
3256027
  0
VERTEX
  8
RA_6120
 62
    11
 10
558780
 20
3256044
  0
VERTEX
  8
RA_6120
 62
    11
 10
558805
 20
3256064
  0
VERTEX
  8
RA_6120
 62
    11
 10
558833
 20
3256080
  0
VERTEX
  8
RA_6120
 62
    11
 10
558857
 20
3256099
  0
VERTEX
  8
RA_6120
 62
    11
 10
558873
 20
3256114
  0
VERTEX
  8
RA_6120
 62
    11
 10
558896
 20
3256144
  0
VERTEX
  8
RA_6120
 62
    11
 10
558904
 20
3256165
  0
VERTEX
  8
RA_6120
 62
    11
 10
558952
 20
3256205
  0
VERTEX
  8
RA_6120
 62
    11
 10
558988
 20
3256226
  0
VERTEX
  8
RA_6120
 62
    11
 10
559119
 20
3256283
  0
VERTEX
  8
RA_6120
 62
    11
 10
559144
 20
3256299
  0
VERTEX
  8
RA_6120
 62
    11
 10
559166
 20
3256305
  0
VERTEX
  8
RA_6120
 62
    11
 10
559179
 20
3256285
  0
VERTEX
  8
RA_6120
 62
    11
 10
559187
 20
3256258
  0
VERTEX
  8
RA_6120
 62
    11
 10
559201
 20
3256175
  0
VERTEX
  8
RA_6120
 62
    11
 10
559210
 20
3256130
  0
VERTEX
  8
RA_6120
 62
    11
 10
559242
 20
3256133
  0
VERTEX
  8
RA_6120
 62
    11
 10
559292
 20
3256154
  0
VERTEX
  8
RA_6120
 62
    11
 10
559301
 20
3256173
  0
VERTEX
  8
RA_6120
 62
    11
 10
559299
 20
3256200
  0
VERTEX
  8
RA_6120
 62
    11
 10
559300
 20
3256231
  0
VERTEX
  8
RA_6120
 62
    11
 10
559315
 20
3256260
  0
VERTEX
  8
RA_6120
 62
    11
 10
559329
 20
3256279
  0
VERTEX
  8
RA_6120
 62
    11
 10
559366
 20
3256306
  0
VERTEX
  8
RA_6120
 62
    11
 10
559440
 20
3256315
  0
VERTEX
  8
RA_6120
 62
    11
 10
559473
 20
3256333
  0
VERTEX
  8
RA_6120
 62
    11
 10
559495
 20
3256356
  0
VERTEX
  8
RA_6120
 62
    11
 10
559549
 20
3256401
  0
VERTEX
  8
RA_6120
 62
    11
 10
559553
 20
3256402
  0
VERTEX
  8
RA_6120
 62
    11
 10
559593
 20
3256406
  0
VERTEX
  8
RA_6120
 62
    11
 10
559628
 20
3256407
  0
VERTEX
  8
RA_6120
 62
    11
 10
559687
 20
3256401
  0
VERTEX
  8
RA_6120
 62
    11
 10
559743
 20
3256415
  0
VERTEX
  8
RA_6120
 62
    11
 10
559787
 20
3256415
  0
VERTEX
  8
RA_6120
 62
    11
 10
559812
 20
3256393
  0
VERTEX
  8
RA_6120
 62
    11
 10
559905
 20
3256374
  0
VERTEX
  8
RA_6120
 62
    11
 10
559952
 20
3256368
  0
VERTEX
  8
RA_6120
 62
    11
 10
559969
 20
3256371
  0
SEQEND
  0
POLYLINE
  8
RA_6120
  6
CONTINUOUS
 62
    11
 66
     1
  0
VERTEX
  8
RA_6120
 62
    11
 10
559902
 20
3256333
  0
VERTEX
  8
RA_6120
 62
    11
 10
559922
 20
3256350
  0
VERTEX
  8
RA_6120
 62
    11
 10
559969
 20
3256371
  0
SEQEND
  0
POLYLINE
  8
RA_6120
  6
CONTINUOUS
 62
    11
 66
     1
  0
VERTEX
  8
RA_6120
 62
    11
 10
558504
 20
3255230
  0
VERTEX
  8
RA_6120
 62
    11
 10
558539
 20
3255247
  0
VERTEX
  8
RA_6120
 62
    11
 10
558526
 20
3255277
  0
VERTEX
  8
RA_6120
 62
    11
 10
558525
 20
3255295
  0
VERTEX
  8
RA_6120
 62
    11
 10
558527
 20
3255310
  0
VERTEX
  8
RA_6120
 62
    11
 10
558545
 20
3255318
  0
VERTEX
  8
RA_6120
 62
    11
 10
558563
 20
3255324
  0
VERTEX
  8
RA_6120
 62
    11
 10
558581
 20
3255333
  0
VERTEX
  8
RA_6120
 62
    11
 10
558598
 20
3255328
  0
VERTEX
  8
RA_6120
 62
    11
 10
558626
 20
3255341
  0
VERTEX
  8
RA_6120
 62
    11
 10
558632
 20
3255356
  0
VERTEX
  8
RA_6120
 62
    11
 10
558635
 20
3255373
  0
VERTEX
  8
RA_6120
 62
    11
 10
558646
 20
3255383
  0
VERTEX
  8
RA_6120
 62
    11
 10
558662
 20
3255381
  0
VERTEX
  8
RA_6120
 62
    11
 10
558688
 20
3255383
  0
VERTEX
  8
RA_6120
 62
    11
 10
558690
 20
3255383
  0
VERTEX
  8
RA_6120
 62
    11
 10
558721
 20
3255403
  0
VERTEX
  8
RA_6120
 62
    11
 10
558742
 20
3255422
  0
VERTEX
  8
RA_6120
 62
    11
 10
558756
 20
3255433
  0
VERTEX
  8
RA_6120
 62
    11
 10
558760
 20
3255457
  0
VERTEX
  8
RA_6120
 62
    11
 10
558744
 20
3255489
  0
VERTEX
  8
RA_6120
 62
    11
 10
558739
 20
3255503
  0
VERTEX
  8
RA_6120
 62
    11
 10
558733
 20
3255520
  0
VERTEX
  8
RA_6120
 62
    11
 10
558730
 20
3255535
  0
VERTEX
  8
RA_6120
 62
    11
 10
558739
 20
3255546
  0
VERTEX
  8
RA_6120
 62
    11
 10
558763
 20
3255557
  0
VERTEX
  8
RA_6120
 62
    11
 10
558795
 20
3255576
  0
VERTEX
  8
RA_6120
 62
    11
 10
558802
 20
3255585
  0
VERTEX
  8
RA_6120
 62
    11
 10
558802
 20
3255591
  0
VERTEX
  8
RA_6120
 62
    11
 10
558792
 20
3255600
  0
VERTEX
  8
RA_6120
 62
    11
 10
558785
 20
3255613
  0
VERTEX
  8
RA_6120
 62
    11
 10
558787
 20
3255627
  0
VERTEX
  8
RA_6120
 62
    11
 10
558797
 20
3255639
  0
VERTEX
  8
RA_6120
 62
    11
 10
558812
 20
3255647
  0
VERTEX
  8
RA_6120
 62
    11
 10
558823
 20
3255654
  0
VERTEX
  8
RA_6120
 62
    11
 10
558833
 20
3255659
  0
VERTEX
  8
RA_6120
 62
    11
 10
558839
 20
3255670
  0
VERTEX
  8
RA_6120
 62
    11
 10
558848
 20
3255682
  0
VERTEX
  8
RA_6120
 62
    11
 10
558868
 20
3255687
  0
VERTEX
  8
RA_6120
 62
    11
 10
558907
 20
3255692
  0
VERTEX
  8
RA_6120
 62
    11
 10
558935
 20
3255700
  0
VERTEX
  8
RA_6120
 62
    11
 10
558973
 20
3255712
  0
VERTEX
  8
RA_6120
 62
    11
 10
558992
 20
3255720
  0
VERTEX
  8
RA_6120
 62
    11
 10
559029
 20
3255737
  0
VERTEX
  8
RA_6120
 62
    11
 10
559045
 20
3255750
  0
VERTEX
  8
RA_6120
 62
    11
 10
559078
 20
3255761
  0
VERTEX
  8
RA_6120
 62
    11
 10
559112
 20
3255778
  0
VERTEX
  8
RA_6120
 62
    11
 10
559150
 20
3255795
  0
VERTEX
  8
RA_6120
 62
    11
 10
559182
 20
3255812
  0
VERTEX
  8
RA_6120
 62
    11
 10
559262
 20
3255859
  0
VERTEX
  8
RA_6120
 62
    11
 10
559293
 20
3255881
  0
VERTEX
  8
RA_6120
 62
    11
 10
559345
 20
3255921
  0
VERTEX
  8
RA_6120
 62
    11
 10
559385
 20
3255948
  0
VERTEX
  8
RA_6120
 62
    11
 10
559413
 20
3255969
  0
VERTEX
  8
RA_6120
 62
    11
 10
559419
 20
3255968
  0
VERTEX
  8
RA_6120
 62
    11
 10
559424
 20
3255967
  0
VERTEX
  8
RA_6120
 62
    11
 10
559435
 20
3255948
  0
VERTEX
  8
RA_6120
 62
    11
 10
559444
 20
3255937
  0
VERTEX
  8
RA_6120
 62
    11
 10
559463
 20
3255939
  0
VERTEX
  8
RA_6120
 62
    11
 10
559503
 20
3255946
  0
VERTEX
  8
RA_6120
 62
    11
 10
559513
 20
3255941
  0
VERTEX
  8
RA_6120
 62
    11
 10
559540
 20
3255923
  0
VERTEX
  8
RA_6120
 62
    11
 10
559557
 20
3255925
  0
VERTEX
  8
RA_6120
 62
    11
 10
559574
 20
3255930
  0
VERTEX
  8
RA_6120
 62
    11
 10
559578
 20
3255962
  0
VERTEX
  8
RA_6120
 62
    11
 10
559587
 20
3255990
  0
VERTEX
  8
RA_6120
 62
    11
 10
559602
 20
3256023
  0
VERTEX
  8
RA_6120
 62
    11
 10
559608
 20
3256050
  0
VERTEX
  8
RA_6120
 62
    11
 10
559611
 20
3256102
  0
VERTEX
  8
RA_6120
 62
    11
 10
559611
 20
3256119
  0
VERTEX
  8
RA_6120
 62
    11
 10
559627
 20
3256129
  0
VERTEX
  8
RA_6120
 62
    11
 10
559667
 20
3256157
  0
VERTEX
  8
RA_6120
 62
    11
 10
559696
 20
3256177
  0
VERTEX
  8
RA_6120
 62
    11
 10
559715
 20
3256188
  0
VERTEX
  8
RA_6120
 62
    11
 10
559726
 20
3256186
  0
VERTEX
  8
RA_6120
 62
    11
 10
559778
 20
3256094
  0
VERTEX
  8
RA_6120
 62
    11
 10
559779
 20
3256090
  0
VERTEX
  8
RA_6120
 62
    11
 10
559791
 20
3256021
  0
VERTEX
  8
RA_6120
 62
    11
 10
559791
 20
3256019
  0
VERTEX
  8
RA_6120
 62
    11
 10
559796
 20
3255996
  0
VERTEX
  8
RA_6120
 62
    11
 10
559805
 20
3255991
  0
VERTEX
  8
RA_6120
 62
    11
 10
559821
 20
3256000
  0
VERTEX
  8
RA_6120
 62
    11
 10
559843
 20
3256014
  0
VERTEX
  8
RA_6120
 62
    11
 10
559886
 20
3256032
  0
VERTEX
  8
RA_6120
 62
    11
 10
559923
 20
3256053
  0
VERTEX
  8
RA_6120
 62
    11
 10
559930
 20
3256062
  0
VERTEX
  8
RA_6120
 62
    11
 10
559925
 20
3256074
  0
VERTEX
  8
RA_6120
 62
    11
 10
559886
 20
3256125
  0
VERTEX
  8
RA_6120
 62
    11
 10
559865
 20
3256160
  0
VERTEX
  8
RA_6120
 62
    11
 10
559854
 20
3256179
  0
VERTEX
  8
RA_6120
 62
    11
 10
559860
 20
3256190
  0
VERTEX
  8
RA_6120
 62
    11
 10
559879
 20
3256193
  0
VERTEX
  8
RA_6120
 62
    11
 10
559904
 20
3256190
  0
VERTEX
  8
RA_6120
 62
    11
 10
559927
 20
3256186
  0
VERTEX
  8
RA_6120
 62
    11
 10
560026
 20
3256193
  0
VERTEX
  8
RA_6120
 62
    11
 10
560050
 20
3256191
  0
VERTEX
  8
RA_6120
 62
    11
 10
560074
 20
3256190
  0
VERTEX
  8
RA_6120
 62
    11
 10
560086
 20
3256196
  0
VERTEX
  8
RA_6120
 62
    11
 10
560091
 20
3256208
  0
VERTEX
  8
RA_6120
 62
    11
 10
560090
 20
3256224
  0
VERTEX
  8
RA_6120
 62
    11
 10
560076
 20
3256237
  0
VERTEX
  8
RA_6120
 62
    11
 10
560052
 20
3256251
  0
VERTEX
  8
RA_6120
 62
    11
 10
560033
 20
3256264
  0
VERTEX
  8
RA_6120
 62
    11
 10
560011
 20
3256279
  0
VERTEX
  8
RA_6120
 62
    11
 10
559991
 20
3256278
  0
VERTEX
  8
RA_6120
 62
    11
 10
559969
 20
3256277
  0
VERTEX
  8
RA_6120
 62
    11
 10
559953
 20
3256289
  0
VERTEX
  8
RA_6120
 62
    11
 10
559916
 20
3256314
  0
VERTEX
  8
RA_6120
 62
    11
 10
559902
 20
3256333
  0
SEQEND
  0
POLYLINE
  8
RA_6120
  6
CONTINUOUS
 62
    11
 66
     1
  0
VERTEX
  8
RA_6120
 62
    11
 10
558394
 20
3255180
  0
VERTEX
  8
RA_6120
 62
    11
 10
558504
 20
3255230
  0
SEQEND
  0
POLYLINE
  8
RA_6120
  6
CONTINUOUS
 62
    11
 66
     1
  0
VERTEX
  8
RA_6120
 62
    11
 10
558375
 20
3255227
  0
VERTEX
  8
RA_6120
 62
    11
 10
558394
 20
3255180
  0
SEQEND
  0
POLYLINE
  8
RA_6120
  6
CONTINUOUS
 62
    11
 66
     1
  0
VERTEX
  8
RA_6120
 62
    11
 10
558101
 20
3255116
  0
VERTEX
  8
RA_6120
 62
    11
 10
558269
 20
3255185
  0
VERTEX
  8
RA_6120
 62
    11
 10
558348
 20
3255221
  0
VERTEX
  8
RA_6120
 62
    11
 10
558367
 20
3255225
  0
VERTEX
  8
RA_6120
 62
    11
 10
558375
 20
3255227
  0
SEQEND
  0
POLYLINE
  8
RA_6120
  6
CONTINUOUS
 62
    11
 66
     1
  0
VERTEX
  8
RA_6120
 62
    11
 10
558101
 20
3255116
  0
VERTEX
  8
RA_6120
 62
    11
 10
558236
 20
3254864
  0
SEQEND
  0
POLYLINE
  8
RA_6120
  6
CONTINUOUS
 62
    11
 66
     1
  0
VERTEX
  8
RA_6120
 62
    11
 10
558236
 20
3254864
  0
VERTEX
  8
RA_6120
 62
    11
 10
558248
 20
3254871
  0
VERTEX
  8
RA_6120
 62
    11
 10
558377
 20
3254944
  0
SEQEND
  0
POLYLINE
  8
RA_6120
  6
CONTINUOUS
 62
    11
 66
     1
  0
VERTEX
  8
RA_6120
 62
    11
 10
558377
 20
3254944
  0
VERTEX
  8
RA_6120
 62
    11
 10
558387
 20
3254920
  0
VERTEX
  8
RA_6120
 62
    11
 10
558409
 20
3254909
  0
VERTEX
  8
RA_6120
 62
    11
 10
558436
 20
3254901
  0
VERTEX
  8
RA_6120
 62
    11
 10
558462
 20
3254897
  0
VERTEX
  8
RA_6120
 62
    11
 10
558479
 20
3254900
  0
VERTEX
  8
RA_6120
 62
    11
 10
558501
 20
3254903
  0
VERTEX
  8
RA_6120
 62
    11
 10
558540
 20
3254920
  0
VERTEX
  8
RA_6120
 62
    11
 10
558560
 20
3254926
  0
VERTEX
  8
RA_6120
 62
    11
 10
558720
 20
3255000
  0
VERTEX
  8
RA_6120
 62
    11
 10
558738
 20
3254997
  0
VERTEX
  8
RA_6120
 62
    11
 10
558757
 20
3254970
  0
VERTEX
  8
RA_6120
 62
    11
 10
558771
 20
3254934
  0
VERTEX
  8
RA_6120
 62
    11
 10
558790
 20
3254883
  0
VERTEX
  8
RA_6120
 62
    11
 10
558794
 20
3254856
  0
VERTEX
  8
RA_6120
 62
    11
 10
558802
 20
3254834
  0
VERTEX
  8
RA_6120
 62
    11
 10
558837
 20
3254766
  0
VERTEX
  8
RA_6120
 62
    11
 10
558848
 20
3254756
  0
VERTEX
  8
RA_6120
 62
    11
 10
558869
 20
3254759
  0
VERTEX
  8
RA_6120
 62
    11
 10
558892
 20
3254770
  0
VERTEX
  8
RA_6120
 62
    11
 10
558909
 20
3254790
  0
VERTEX
  8
RA_6120
 62
    11
 10
558926
 20
3254826
  0
VERTEX
  8
RA_6120
 62
    11
 10
558938
 20
3254849
  0
VERTEX
  8
RA_6120
 62
    11
 10
558954
 20
3254862
  0
VERTEX
  8
RA_6120
 62
    11
 10
558992
 20
3254877
  0
VERTEX
  8
RA_6120
 62
    11
 10
559040
 20
3254899
  0
VERTEX
  8
RA_6120
 62
    11
 10
559160
 20
3254948
  0
SEQEND
  0
POLYLINE
  8
RA_6120
  6
CONTINUOUS
 62
    11
 66
     1
  0
VERTEX
  8
RA_6120
 62
    11
 10
559160
 20
3254948
  0
VERTEX
  8
RA_6120
 62
    11
 10
559177
 20
3254911
  0
SEQEND
  0
POLYLINE
  8
RA_6120
  6
CONTINUOUS
 62
    11
 66
     1
  0
VERTEX
  8
RA_6120
 62
    11
 10
559177
 20
3254911
  0
VERTEX
  8
RA_6120
 62
    11
 10
559210
 20
3254841
  0
SEQEND
  0
POLYLINE
  8
RA_6120
  6
CONTINUOUS
 62
    11
 66
     1
  0
VERTEX
  8
RA_6120
 62
    11
 10
559210
 20
3254841
  0
VERTEX
  8
RA_6120
 62
    11
 10
559257
 20
3254854
  0
VERTEX
  8
RA_6120
 62
    11
 10
559290
 20
3254862
  0
VERTEX
  8
RA_6120
 62
    11
 10
559325
 20
3254874
  0
VERTEX
  8
RA_6120
 62
    11
 10
559340
 20
3254887
  0
VERTEX
  8
RA_6120
 62
    11
 10
559340
 20
3254910
  0
VERTEX
  8
RA_6120
 62
    11
 10
559337
 20
3254924
  0
VERTEX
  8
RA_6120
 62
    11
 10
559318
 20
3254950
  0
VERTEX
  8
RA_6120
 62
    11
 10
559313
 20
3254968
  0
SEQEND
  0
POLYLINE
  8
RA_6120
  6
CONTINUOUS
 62
    11
 66
     1
  0
VERTEX
  8
RA_6120
 62
    11
 10
559313
 20
3254968
  0
VERTEX
  8
RA_6120
 62
    11
 10
559354
 20
3254983
  0
SEQEND
  0
POLYLINE
  8
RA_6120
  6
CONTINUOUS
 62
    11
 66
     1
  0
VERTEX
  8
RA_6120
 62
    11
 10
562721
 20
3260066
  0
VERTEX
  8
RA_6120
 62
    11
 10
562747
 20
3260021
  0
VERTEX
  8
RA_6120
 62
    11
 10
562804
 20
3259907
  0
VERTEX
  8
RA_6120
 62
    11
 10
562812
 20
3259856
  0
SEQEND
  0
POLYLINE
  8
RA_6120
  6
CONTINUOUS
 62
    11
 66
     1
  0
VERTEX
  8
RA_6120
 62
    11
 10
562341
 20
3260472
  0
VERTEX
  8
RA_6120
 62
    11
 10
562368
 20
3260478
  0
VERTEX
  8
RA_6120
 62
    11
 10
562396
 20
3260485
  0
VERTEX
  8
RA_6120
 62
    11
 10
562534
 20
3260484
  0
VERTEX
  8
RA_6120
 62
    11
 10
562569
 20
3260484
  0
VERTEX
  8
RA_6120
 62
    11
 10
562592
 20
3260474
  0
VERTEX
  8
RA_6120
 62
    11
 10
562606
 20
3260449
  0
VERTEX
  8
RA_6120
 62
    11
 10
562611
 20
3260438
  0
VERTEX
  8
RA_6120
 62
    11
 10
562634
 20
3260392
  0
VERTEX
  8
RA_6120
 62
    11
 10
562662
 20
3260309
  0
VERTEX
  8
RA_6120
 62
    11
 10
562677
 20
3260268
  0
VERTEX
  8
RA_6120
 62
    11
 10
562699
 20
3260222
  0
VERTEX
  8
RA_6120
 62
    11
 10
562726
 20
3260126
  0
VERTEX
  8
RA_6120
 62
    11
 10
562741
 20
3260097
  0
VERTEX
  8
RA_6120
 62
    11
 10
562737
 20
3260080
  0
VERTEX
  8
RA_6120
 62
    11
 10
562721
 20
3260066
  0
SEQEND
  0
POLYLINE
  8
RA_6120
  6
CONTINUOUS
 62
    11
 66
     1
  0
VERTEX
  8
RA_6120
 62
    11
 10
562203
 20
3260224
  0
VERTEX
  8
RA_6120
 62
    11
 10
562214
 20
3260245
  0
VERTEX
  8
RA_6120
 62
    11
 10
562255
 20
3260295
  0
VERTEX
  8
RA_6120
 62
    11
 10
562298
 20
3260353
  0
VERTEX
  8
RA_6120
 62
    11
 10
562316
 20
3260400
  0
VERTEX
  8
RA_6120
 62
    11
 10
562333
 20
3260452
  0
VERTEX
  8
RA_6120
 62
    11
 10
562341
 20
3260472
  0
SEQEND
  0
POLYLINE
  8
RA_6120
  6
CONTINUOUS
 62
    11
 66
     1
  0
VERTEX
  8
RA_6120
 62
    11
 10
562203
 20
3260224
  0
VERTEX
  8
RA_6120
 62
    11
 10
562180
 20
3260219
  0
VERTEX
  8
RA_6120
 62
    11
 10
562157
 20
3260209
  0
VERTEX
  8
RA_6120
 62
    11
 10
562127
 20
3260194
  0
SEQEND
  0
POLYLINE
  8
RA_6120
  6
CONTINUOUS
 62
    11
 66
     1
  0
VERTEX
  8
RA_6120
 62
    11
 10
562018
 20
3260075
  0
VERTEX
  8
RA_6120
 62
    11
 10
562036
 20
3260087
  0
VERTEX
  8
RA_6120
 62
    11
 10
562080
 20
3260134
  0
VERTEX
  8
RA_6120
 62
    11
 10
562120
 20
3260184
  0
VERTEX
  8
RA_6120
 62
    11
 10
562127
 20
3260194
  0
SEQEND
  0
POLYLINE
  8
RA_6120
  6
CONTINUOUS
 62
    11
 66
     1
  0
VERTEX
  8
RA_6120
 62
    11
 10
562018
 20
3260075
  0
VERTEX
  8
RA_6120
 62
    11
 10
562009
 20
3260038
  0
VERTEX
  8
RA_6120
 62
    11
 10
562002
 20
3260015
  0
VERTEX
  8
RA_6120
 62
    11
 10
561987
 20
3259938
  0
VERTEX
  8
RA_6120
 62
    11
 10
561972
 20
3259834
  0
VERTEX
  8
RA_6120
 62
    11
 10
561966
 20
3259799
  0
VERTEX
  8
RA_6120
 62
    11
 10
561959
 20
3259765
  0
SEQEND
  0
POLYLINE
  8
RA_6120
  6
CONTINUOUS
 62
    11
 66
     1
  0
VERTEX
  8
RA_6120
 62
    11
 10
561942
 20
3259682
  0
VERTEX
  8
RA_6120
 62
    11
 10
561962
 20
3259699
  0
VERTEX
  8
RA_6120
 62
    11
 10
561974
 20
3259726
  0
VERTEX
  8
RA_6120
 62
    11
 10
561959
 20
3259765
  0
SEQEND
  0
POLYLINE
  8
RA_6120
  6
CONTINUOUS
 62
    11
 66
     1
  0
VERTEX
  8
RA_6120
 62
    11
 10
561942
 20
3259682
  0
VERTEX
  8
RA_6120
 62
    11
 10
561934
 20
3259650
  0
VERTEX
  8
RA_6120
 62
    11
 10
561927
 20
3259615
  0
VERTEX
  8
RA_6120
 62
    11
 10
561918
 20
3259549
  0
VERTEX
  8
RA_6120
 62
    11
 10
561908
 20
3259498
  0
VERTEX
  8
RA_6120
 62
    11
 10
561907
 20
3259475
  0
VERTEX
  8
RA_6120
 62
    11
 10
561919
 20
3259459
  0
VERTEX
  8
RA_6120
 62
    11
 10
561952
 20
3259458
  0
VERTEX
  8
RA_6120
 62
    11
 10
561990
 20
3259466
  0
VERTEX
  8
RA_6120
 62
    11
 10
562026
 20
3259483
  0
VERTEX
  8
RA_6120
 62
    11
 10
562056
 20
3259494
  0
VERTEX
  8
RA_6120
 62
    11
 10
562077
 20
3259496
  0
VERTEX
  8
RA_6120
 62
    11
 10
562095
 20
3259497
  0
SEQEND
  0
POLYLINE
  8
RA_6120
  6
CONTINUOUS
 62
    11
 66
     1
  0
VERTEX
  8
RA_6120
 62
    11
 10
562065
 20
3259254
  0
VERTEX
  8
RA_6120
 62
    11
 10
562079
 20
3259380
  0
VERTEX
  8
RA_6120
 62
    11
 10
562092
 20
3259474
  0
VERTEX
  8
RA_6120
 62
    11
 10
562095
 20
3259497
  0
SEQEND
  0
POLYLINE
  8
RA_6120
  6
CONTINUOUS
 62
    11
 66
     1
  0
VERTEX
  8
RA_6120
 62
    11
 10
562036
 20
3259088
  0
VERTEX
  8
RA_6120
 62
    11
 10
562015
 20
3259104
  0
VERTEX
  8
RA_6120
 62
    11
 10
561955
 20
3259108
  0
VERTEX
  8
RA_6120
 62
    11
 10
561905
 20
3259109
  0
VERTEX
  8
RA_6120
 62
    11
 10
561866
 20
3259106
  0
VERTEX
  8
RA_6120
 62
    11
 10
561837
 20
3259102
  0
VERTEX
  8
RA_6120
 62
    11
 10
561824
 20
3259115
  0
VERTEX
  8
RA_6120
 62
    11
 10
561831
 20
3259136
  0
VERTEX
  8
RA_6120
 62
    11
 10
561834
 20
3259196
  0
VERTEX
  8
RA_6120
 62
    11
 10
561843
 20
3259238
  0
VERTEX
  8
RA_6120
 62
    11
 10
561845
 20
3259269
  0
VERTEX
  8
RA_6120
 62
    11
 10
561861
 20
3259281
  0
VERTEX
  8
RA_6120
 62
    11
 10
561882
 20
3259279
  0
VERTEX
  8
RA_6120
 62
    11
 10
561896
 20
3259265
  0
VERTEX
  8
RA_6120
 62
    11
 10
561907
 20
3259242
  0
VERTEX
  8
RA_6120
 62
    11
 10
561946
 20
3259206
  0
VERTEX
  8
RA_6120
 62
    11
 10
561968
 20
3259192
  0
VERTEX
  8
RA_6120
 62
    11
 10
561996
 20
3259173
  0
VERTEX
  8
RA_6120
 62
    11
 10
562046
 20
3259137
  0
VERTEX
  8
RA_6120
 62
    11
 10
562060
 20
3259119
  0
VERTEX
  8
RA_6120
 62
    11
 10
562076
 20
3259108
  0
VERTEX
  8
RA_6120
 62
    11
 10
562163
 20
3259088
  0
VERTEX
  8
RA_6120
 62
    11
 10
562179
 20
3259081
  0
VERTEX
  8
RA_6120
 62
    11
 10
562192
 20
3259069
  0
VERTEX
  8
RA_6120
 62
    11
 10
562197
 20
3259046
  0
VERTEX
  8
RA_6120
 62
    11
 10
562191
 20
3259013
  0
VERTEX
  8
RA_6120
 62
    11
 10
562177
 20
3258996
  0
VERTEX
  8
RA_6120
 62
    11
 10
562173
 20
3258975
  0
VERTEX
  8
RA_6120
 62
    11
 10
562172
 20
3258946
  0
VERTEX
  8
RA_6120
 62
    11
 10
562167
 20
3258923
  0
VERTEX
  8
RA_6120
 62
    11
 10
562181
 20
3258917
  0
VERTEX
  8
RA_6120
 62
    11
 10
562230
 20
3258927
  0
VERTEX
  8
RA_6120
 62
    11
 10
562400
 20
3258973
  0
VERTEX
  8
RA_6120
 62
    11
 10
562425
 20
3258988
  0
VERTEX
  8
RA_6120
 62
    11
 10
562432
 20
3259021
  0
VERTEX
  8
RA_6120
 62
    11
 10
562433
 20
3259081
  0
VERTEX
  8
RA_6120
 62
    11
 10
562439
 20
3259146
  0
VERTEX
  8
RA_6120
 62
    11
 10
562448
 20
3259161
  0
VERTEX
  8
RA_6120
 62
    11
 10
562474
 20
3259167
  0
VERTEX
  8
RA_6120
 62
    11
 10
562496
 20
3259181
  0
VERTEX
  8
RA_6120
 62
    11
 10
562504
 20
3259198
  0
VERTEX
  8
RA_6120
 62
    11
 10
562494
 20
3259217
  0
VERTEX
  8
RA_6120
 62
    11
 10
562473
 20
3259221
  0
VERTEX
  8
RA_6120
 62
    11
 10
562451
 20
3259217
  0
VERTEX
  8
RA_6120
 62
    11
 10
562438
 20
3259213
  0
VERTEX
  8
RA_6120
 62
    11
 10
562380
 20
3259217
  0
VERTEX
  8
RA_6120
 62
    11
 10
562336
 20
3259215
  0
VERTEX
  8
RA_6120
 62
    11
 10
562253
 20
3259207
  0
VERTEX
  8
RA_6120
 62
    11
 10
562209
 20
3259199
  0
VERTEX
  8
RA_6120
 62
    11
 10
562201
 20
3259204
  0
VERTEX
  8
RA_6120
 62
    11
 10
562198
 20
3259225
  0
VERTEX
  8
RA_6120
 62
    11
 10
562200
 20
3259244
  0
VERTEX
  8
RA_6120
 62
    11
 10
562197
 20
3259259
  0
VERTEX
  8
RA_6120
 62
    11
 10
562192
 20
3259261
  0
VERTEX
  8
RA_6120
 62
    11
 10
562093
 20
3259255
  0
VERTEX
  8
RA_6120
 62
    11
 10
562065
 20
3259254
  0
SEQEND
  0
POLYLINE
  8
RA_6120
  6
CONTINUOUS
 62
    11
 66
     1
  0
VERTEX
  8
RA_6120
 62
    11
 10
562032
 20
3258956
  0
VERTEX
  8
RA_6120
 62
    11
 10
562033
 20
3259073
  0
VERTEX
  8
RA_6120
 62
    11
 10
562036
 20
3259088
  0
SEQEND
  0
POLYLINE
  8
RA_6120
  6
CONTINUOUS
 62
    11
 66
     1
  0
VERTEX
  8
RA_6120
 62
    11
 10
562032
 20
3258956
  0
VERTEX
  8
RA_6120
 62
    11
 10
562007
 20
3258959
  0
VERTEX
  8
RA_6120
 62
    11
 10
561982
 20
3258954
  0
VERTEX
  8
RA_6120
 62
    11
 10
561905
 20
3258950
  0
VERTEX
  8
RA_6120
 62
    11
 10
561877
 20
3258948
  0
VERTEX
  8
RA_6120
 62
    11
 10
561863
 20
3258934
  0
VERTEX
  8
RA_6120
 62
    11
 10
561857
 20
3258917
  0
VERTEX
  8
RA_6120
 62
    11
 10
561821
 20
3258758
  0
VERTEX
  8
RA_6120
 62
    11
 10
561800
 20
3258640
  0
VERTEX
  8
RA_6120
 62
    11
 10
561788
 20
3258631
  0
VERTEX
  8
RA_6120
 62
    11
 10
561766
 20
3258631
  0
VERTEX
  8
RA_6120
 62
    11
 10
561733
 20
3258644
  0
VERTEX
  8
RA_6120
 62
    11
 10
561725
 20
3258671
  0
VERTEX
  8
RA_6120
 62
    11
 10
561724
 20
3258700
  0
VERTEX
  8
RA_6120
 62
    11
 10
561718
 20
3258704
  0
VERTEX
  8
RA_6120
 62
    11
 10
561698
 20
3258704
  0
VERTEX
  8
RA_6120
 62
    11
 10
561678
 20
3258698
  0
VERTEX
  8
RA_6120
 62
    11
 10
561633
 20
3258679
  0
VERTEX
  8
RA_6120
 62
    11
 10
561622
 20
3258661
  0
VERTEX
  8
RA_6120
 62
    11
 10
561625
 20
3258638
  0
VERTEX
  8
RA_6120
 62
    11
 10
561629
 20
3258602
  0
VERTEX
  8
RA_6120
 62
    11
 10
561624
 20
3258579
  0
VERTEX
  8
RA_6120
 62
    11
 10
561609
 20
3258528
  0
VERTEX
  8
RA_6120
 62
    11
 10
561596
 20
3258505
  0
SEQEND
  0
POLYLINE
  8
RA_6120
  6
CONTINUOUS
 62
    11
 66
     1
  0
VERTEX
  8
RA_6120
 62
    11
 10
561594
 20
3258336
  0
VERTEX
  8
RA_6120
 62
    11
 10
561579
 20
3258350
  0
VERTEX
  8
RA_6120
 62
    11
 10
561575
 20
3258379
  0
VERTEX
  8
RA_6120
 62
    11
 10
561573
 20
3258404
  0
VERTEX
  8
RA_6120
 62
    11
 10
561589
 20
3258471
  0
VERTEX
  8
RA_6120
 62
    11
 10
561596
 20
3258505
  0
SEQEND
  0
POLYLINE
  8
RA_6120
  6
CONTINUOUS
 62
    11
 66
     1
  0
VERTEX
  8
RA_6120
 62
    11
 10
561594
 20
3258336
  0
VERTEX
  8
RA_6120
 62
    11
 10
561585
 20
3258320
  0
VERTEX
  8
RA_6120
 62
    11
 10
561558
 20
3258318
  0
VERTEX
  8
RA_6120
 62
    11
 10
561490
 20
3258295
  0
VERTEX
  8
RA_6120
 62
    11
 10
561462
 20
3258282
  0
VERTEX
  8
RA_6120
 62
    11
 10
561445
 20
3258266
  0
SEQEND
  0
POLYLINE
  8
RA_6120
  6
CONTINUOUS
 62
    11
 66
     1
  0
VERTEX
  8
RA_6120
 62
    11
 10
561391
 20
3258038
  0
VERTEX
  8
RA_6120
 62
    11
 10
561415
 20
3258134
  0
VERTEX
  8
RA_6120
 62
    11
 10
561445
 20
3258266
  0
SEQEND
  0
POLYLINE
  8
RA_6120
  6
CONTINUOUS
 62
    11
 66
     1
  0
VERTEX
  8
RA_6120
 62
    11
 10
561391
 20
3258038
  0
VERTEX
  8
RA_6120
 62
    11
 10
561397
 20
3258022
  0
VERTEX
  8
RA_6120
 62
    11
 10
561412
 20
3258016
  0
VERTEX
  8
RA_6120
 62
    11
 10
561436
 20
3258008
  0
VERTEX
  8
RA_6120
 62
    11
 10
561443
 20
3257994
  0
VERTEX
  8
RA_6120
 62
    11
 10
561434
 20
3257979
  0
VERTEX
  8
RA_6120
 62
    11
 10
561411
 20
3257964
  0
VERTEX
  8
RA_6120
 62
    11
 10
561391
 20
3257953
  0
VERTEX
  8
RA_6120
 62
    11
 10
561382
 20
3257938
  0
VERTEX
  8
RA_6120
 62
    11
 10
561401
 20
3257919
  0
VERTEX
  8
RA_6120
 62
    11
 10
561472
 20
3257885
  0
VERTEX
  8
RA_6120
 62
    11
 10
561496
 20
3257861
  0
VERTEX
  8
RA_6120
 62
    11
 10
561500
 20
3257845
  0
VERTEX
  8
RA_6120
 62
    11
 10
561495
 20
3257830
  0
VERTEX
  8
RA_6120
 62
    11
 10
561478
 20
3257821
  0
VERTEX
  8
RA_6120
 62
    11
 10
561451
 20
3257839
  0
VERTEX
  8
RA_6120
 62
    11
 10
561425
 20
3257856
  0
VERTEX
  8
RA_6120
 62
    11
 10
561402
 20
3257876
  0
VERTEX
  8
RA_6120
 62
    11
 10
561380
 20
3257885
  0
VERTEX
  8
RA_6120
 62
    11
 10
561323
 20
3257888
  0
VERTEX
  8
RA_6120
 62
    11
 10
561300
 20
3257878
  0
VERTEX
  8
RA_6120
 62
    11
 10
561291
 20
3257860
  0
VERTEX
  8
RA_6120
 62
    11
 10
561286
 20
3257838
  0
VERTEX
  8
RA_6120
 62
    11
 10
561289
 20
3257788
  0
VERTEX
  8
RA_6120
 62
    11
 10
561279
 20
3257748
  0
VERTEX
  8
RA_6120
 62
    11
 10
561265
 20
3257743
  0
VERTEX
  8
RA_6120
 62
    11
 10
561250
 20
3257756
  0
VERTEX
  8
RA_6120
 62
    11
 10
561254
 20
3257783
  0
VERTEX
  8
RA_6120
 62
    11
 10
561252
 20
3257807
  0
VERTEX
  8
RA_6120
 62
    11
 10
561243
 20
3257812
  0
VERTEX
  8
RA_6120
 62
    11
 10
561227
 20
3257796
  0
VERTEX
  8
RA_6120
 62
    11
 10
561219
 20
3257768
  0
VERTEX
  8
RA_6120
 62
    11
 10
561214
 20
3257741
  0
VERTEX
  8
RA_6120
 62
    11
 10
561191
 20
3257674
  0
VERTEX
  8
RA_6120
 62
    11
 10
561185
 20
3257659
  0
VERTEX
  8
RA_6120
 62
    11
 10
561162
 20
3257647
  0
VERTEX
  8
RA_6120
 62
    11
 10
561138
 20
3257636
  0
VERTEX
  8
RA_6120
 62
    11
 10
561122
 20
3257614
  0
VERTEX
  8
RA_6120
 62
    11
 10
561098
 20
3257586
  0
VERTEX
  8
RA_6120
 62
    11
 10
561049
 20
3257552
  0
SEQEND
  0
POLYLINE
  8
RA_6120
  6
CONTINUOUS
 62
    11
 66
     1
  0
VERTEX
  8
RA_6120
 62
    11
 10
560941
 20
3257417
  0
VERTEX
  8
RA_6120
 62
    11
 10
560975
 20
3257470
  0
VERTEX
  8
RA_6120
 62
    11
 10
561019
 20
3257518
  0
VERTEX
  8
RA_6120
 62
    11
 10
561049
 20
3257552
  0
SEQEND
  0
POLYLINE
  8
RA_6120
  6
CONTINUOUS
 62
    11
 66
     1
  0
VERTEX
  8
RA_6120
 62
    11
 10
560941
 20
3257417
  0
VERTEX
  8
RA_6120
 62
    11
 10
560966
 20
3257404
  0
VERTEX
  8
RA_6120
 62
    11
 10
561004
 20
3257409
  0
VERTEX
  8
RA_6120
 62
    11
 10
561097
 20
3257400
  0
VERTEX
  8
RA_6120
 62
    11
 10
561149
 20
3257405
  0
VERTEX
  8
RA_6120
 62
    11
 10
561187
 20
3257410
  0
VERTEX
  8
RA_6120
 62
    11
 10
561227
 20
3257410
  0
VERTEX
  8
RA_6120
 62
    11
 10
561279
 20
3257421
  0
VERTEX
  8
RA_6120
 62
    11
 10
561308
 20
3257425
  0
VERTEX
  8
RA_6120
 62
    11
 10
561343
 20
3257431
  0
VERTEX
  8
RA_6120
 62
    11
 10
561356
 20
3257437
  0
VERTEX
  8
RA_6120
 62
    11
 10
561412
 20
3257458
  0
VERTEX
  8
RA_6120
 62
    11
 10
561446
 20
3257458
  0
VERTEX
  8
RA_6120
 62
    11
 10
561482
 20
3257465
  0
VERTEX
  8
RA_6120
 62
    11
 10
561510
 20
3257474
  0
VERTEX
  8
RA_6120
 62
    11
 10
561541
 20
3257486
  0
VERTEX
  8
RA_6120
 62
    11
 10
561561
 20
3257492
  0
VERTEX
  8
RA_6120
 62
    11
 10
561570
 20
3257521
  0
VERTEX
  8
RA_6120
 62
    11
 10
561567
 20
3257541
  0
VERTEX
  8
RA_6120
 62
    11
 10
561562
 20
3257574
  0
VERTEX
  8
RA_6120
 62
    11
 10
561587
 20
3257585
  0
VERTEX
  8
RA_6120
 62
    11
 10
561622
 20
3257577
  0
VERTEX
  8
RA_6120
 62
    11
 10
561651
 20
3257570
  0
VERTEX
  8
RA_6120
 62
    11
 10
561703
 20
3257558
  0
VERTEX
  8
RA_6120
 62
    11
 10
561748
 20
3257555
  0
VERTEX
  8
RA_6120
 62
    11
 10
561801
 20
3257558
  0
VERTEX
  8
RA_6120
 62
    11
 10
561825
 20
3257566
  0
VERTEX
  8
RA_6120
 62
    11
 10
561850
 20
3257564
  0
VERTEX
  8
RA_6120
 62
    11
 10
561868
 20
3257552
  0
VERTEX
  8
RA_6120
 62
    11
 10
561876
 20
3257519
  0
VERTEX
  8
RA_6120
 62
    11
 10
561874
 20
3257454
  0
VERTEX
  8
RA_6120
 62
    11
 10
561871
 20
3257434
  0
VERTEX
  8
RA_6120
 62
    11
 10
561848
 20
3257423
  0
VERTEX
  8
RA_6120
 62
    11
 10
561807
 20
3257425
  0
VERTEX
  8
RA_6120
 62
    11
 10
561753
 20
3257425
  0
VERTEX
  8
RA_6120
 62
    11
 10
561733
 20
3257420
  0
VERTEX
  8
RA_6120
 62
    11
 10
561687
 20
3257387
  0
VERTEX
  8
RA_6120
 62
    11
 10
561671
 20
3257372
  0
VERTEX
  8
RA_6120
 62
    11
 10
561626
 20
3257349
  0
VERTEX
  8
RA_6120
 62
    11
 10
561573
 20
3257310
  0
VERTEX
  8
RA_6120
 62
    11
 10
561551
 20
3257293
  0
VERTEX
  8
RA_6120
 62
    11
 10
561536
 20
3257292
  0
VERTEX
  8
RA_6120
 62
    11
 10
561524
 20
3257318
  0
VERTEX
  8
RA_6120
 62
    11
 10
561528
 20
3257352
  0
VERTEX
  8
RA_6120
 62
    11
 10
561543
 20
3257376
  0
VERTEX
  8
RA_6120
 62
    11
 10
561552
 20
3257404
  0
VERTEX
  8
RA_6120
 62
    11
 10
561550
 20
3257425
  0
VERTEX
  8
RA_6120
 62
    11
 10
561531
 20
3257434
  0
VERTEX
  8
RA_6120
 62
    11
 10
561503
 20
3257431
  0
VERTEX
  8
RA_6120
 62
    11
 10
561468
 20
3257427
  0
VERTEX
  8
RA_6120
 62
    11
 10
561385
 20
3257409
  0
VERTEX
  8
RA_6120
 62
    11
 10
561349
 20
3257393
  0
VERTEX
  8
RA_6120
 62
    11
 10
561303
 20
3257381
  0
VERTEX
  8
RA_6120
 62
    11
 10
561271
 20
3257366
  0
VERTEX
  8
RA_6120
 62
    11
 10
561216
 20
3257358
  0
VERTEX
  8
RA_6120
 62
    11
 10
561168
 20
3257358
  0
VERTEX
  8
RA_6120
 62
    11
 10
561089
 20
3257355
  0
VERTEX
  8
RA_6120
 62
    11
 10
561043
 20
3257355
  0
VERTEX
  8
RA_6120
 62
    11
 10
561016
 20
3257354
  0
VERTEX
  8
RA_6120
 62
    11
 10
560994
 20
3257338
  0
VERTEX
  8
RA_6120
 62
    11
 10
560993
 20
3257310
  0
VERTEX
  8
RA_6120
 62
    11
 10
561007
 20
3257290
  0
VERTEX
  8
RA_6120
 62
    11
 10
561045
 20
3257276
  0
VERTEX
  8
RA_6120
 62
    11
 10
561102
 20
3257273
  0
VERTEX
  8
RA_6120
 62
    11
 10
561154
 20
3257285
  0
VERTEX
  8
RA_6120
 62
    11
 10
561235
 20
3257289
  0
VERTEX
  8
RA_6120
 62
    11
 10
561265
 20
3257286
  0
VERTEX
  8
RA_6120
 62
    11
 10
561287
 20
3257266
  0
VERTEX
  8
RA_6120
 62
    11
 10
561294
 20
3257227
  0
VERTEX
  8
RA_6120
 62
    11
 10
561305
 20
3257204
  0
VERTEX
  8
RA_6120
 62
    11
 10
561321
 20
3257188
  0
VERTEX
  8
RA_6120
 62
    11
 10
561327
 20
3257177
  0
VERTEX
  8
RA_6120
 62
    11
 10
561331
 20
3257162
  0
SEQEND
  0
POLYLINE
  8
RA_6120
  6
CONTINUOUS
 62
    11
 66
     1
  0
VERTEX
  8
RA_6120
 62
    11
 10
560932
 20
3257205
  0
VERTEX
  8
RA_6120
 62
    11
 10
560974
 20
3257205
  0
VERTEX
  8
RA_6120
 62
    11
 10
561058
 20
3257197
  0
VERTEX
  8
RA_6120
 62
    11
 10
561139
 20
3257185
  0
VERTEX
  8
RA_6120
 62
    11
 10
561283
 20
3257169
  0
VERTEX
  8
RA_6120
 62
    11
 10
561331
 20
3257162
  0
SEQEND
  0
POLYLINE
  8
RA_6120
  6
CONTINUOUS
 62
    11
 66
     1
  0
VERTEX
  8
RA_6120
 62
    11
 10
560932
 20
3257205
  0
VERTEX
  8
RA_6120
 62
    11
 10
560896
 20
3257185
  0
VERTEX
  8
RA_6120
 62
    11
 10
560874
 20
3257171
  0
VERTEX
  8
RA_6120
 62
    11
 10
560824
 20
3257134
  0
VERTEX
  8
RA_6120
 62
    11
 10
560803
 20
3257117
  0
VERTEX
  8
RA_6120
 62
    11
 10
560776
 20
3257114
  0
VERTEX
  8
RA_6120
 62
    11
 10
560759
 20
3257125
  0
VERTEX
  8
RA_6120
 62
    11
 10
560763
 20
3257146
  0
VERTEX
  8
RA_6120
 62
    11
 10
560783
 20
3257162
  0
VERTEX
  8
RA_6120
 62
    11
 10
560830
 20
3257204
  0
VERTEX
  8
RA_6120
 62
    11
 10
560833
 20
3257234
  0
VERTEX
  8
RA_6120
 62
    11
 10
560845
 20
3257291
  0
VERTEX
  8
RA_6120
 62
    11
 10
560849
 20
3257315
  0
VERTEX
  8
RA_6120
 62
    11
 10
560852
 20
3257343
  0
VERTEX
  8
RA_6120
 62
    11
 10
560842
 20
3257349
  0
VERTEX
  8
RA_6120
 62
    11
 10
560826
 20
3257325
  0
VERTEX
  8
RA_6120
 62
    11
 10
560812
 20
3257305
  0
VERTEX
  8
RA_6120
 62
    11
 10
560791
 20
3257296
  0
VERTEX
  8
RA_6120
 62
    11
 10
560730
 20
3257291
  0
VERTEX
  8
RA_6120
 62
    11
 10
560648
 20
3257297
  0
VERTEX
  8
RA_6120
 62
    11
 10
560578
 20
3257299
  0
VERTEX
  8
RA_6120
 62
    11
 10
560552
 20
3257289
  0
VERTEX
  8
RA_6120
 62
    11
 10
560525
 20
3257249
  0
VERTEX
  8
RA_6120
 62
    11
 10
560493
 20
3257203
  0
VERTEX
  8
RA_6120
 62
    11
 10
560464
 20
3257206
  0
VERTEX
  8
RA_6120
 62
    11
 10
560434
 20
3257215
  0
VERTEX
  8
RA_6120
 62
    11
 10
560397
 20
3257229
  0
VERTEX
  8
RA_6120
 62
    11
 10
560366
 20
3257246
  0
VERTEX
  8
RA_6120
 62
    11
 10
560366
 20
3257274
  0
VERTEX
  8
RA_6120
 62
    11
 10
560407
 20
3257376
  0
VERTEX
  8
RA_6120
 62
    11
 10
560396
 20
3257411
  0
VERTEX
  8
RA_6120
 62
    11
 10
560374
 20
3257422
  0
VERTEX
  8
RA_6120
 62
    11
 10
560329
 20
3257413
  0
VERTEX
  8
RA_6120
 62
    11
 10
560303
 20
3257401
  0
VERTEX
  8
RA_6120
 62
    11
 10
560270
 20
3257400
  0
VERTEX
  8
RA_6120
 62
    11
 10
560223
 20
3257406
  0
VERTEX
  8
RA_6120
 62
    11
 10
560085
 20
3257429
  0
VERTEX
  8
RA_6120
 62
    11
 10
560019
 20
3257418
  0
VERTEX
  8
RA_6120
 62
    11
 10
559964
 20
3257404
  0
VERTEX
  8
RA_6120
 62
    11
 10
559940
 20
3257391
  0
VERTEX
  8
RA_6120
 62
    11
 10
559855
 20
3257362
  0
VERTEX
  8
RA_6120
 62
    11
 10
559838
 20
3257350
  0
VERTEX
  8
RA_6120
 62
    11
 10
559827
 20
3257327
  0
VERTEX
  8
RA_6120
 62
    11
 10
559792
 20
3257291
  0
VERTEX
  8
RA_6120
 62
    11
 10
559775
 20
3257258
  0
VERTEX
  8
RA_6120
 62
    11
 10
559756
 20
3257223
  0
VERTEX
  8
RA_6120
 62
    11
 10
559745
 20
3257189
  0
VERTEX
  8
RA_6120
 62
    11
 10
559726
 20
3257162
  0
VERTEX
  8
RA_6120
 62
    11
 10
559708
 20
3257148
  0
VERTEX
  8
RA_6120
 62
    11
 10
559687
 20
3257144
  0
VERTEX
  8
RA_6120
 62
    11
 10
559666
 20
3257160
  0
VERTEX
  8
RA_6120
 62
    11
 10
559652
 20
3257164
  0
VERTEX
  8
RA_6120
 62
    11
 10
559631
 20
3257160
  0
VERTEX
  8
RA_6120
 62
    11
 10
559611
 20
3257141
  0
VERTEX
  8
RA_6120
 62
    11
 10
559547
 20
3257082
  0
VERTEX
  8
RA_6120
 62
    11
 10
559532
 20
3257055
  0
VERTEX
  8
RA_6120
 62
    11
 10
559534
 20
3257005
  0
VERTEX
  8
RA_6120
 62
    11
 10
559551
 20
3256985
  0
VERTEX
  8
RA_6120
 62
    11
 10
559556
 20
3256958
  0
VERTEX
  8
RA_6120
 62
    11
 10
559550
 20
3256922
  0
VERTEX
  8
RA_6120
 62
    11
 10
559541
 20
3256896
  0
VERTEX
  8
RA_6120
 62
    11
 10
559536
 20
3256841
  0
VERTEX
  8
RA_6120
 62
    11
 10
559536
 20
3256815
  0
VERTEX
  8
RA_6120
 62
    11
 10
559555
 20
3256795
  0
VERTEX
  8
RA_6120
 62
    11
 10
559596
 20
3256779
  0
VERTEX
  8
RA_6120
 62
    11
 10
559663
 20
3256765
  0
VERTEX
  8
RA_6120
 62
    11
 10
559713
 20
3256766
  0
VERTEX
  8
RA_6120
 62
    11
 10
559767
 20
3256794
  0
VERTEX
  8
RA_6120
 62
    11
 10
559792
 20
3256820
  0
VERTEX
  8
RA_6120
 62
    11
 10
559804
 20
3256839
  0
VERTEX
  8
RA_6120
 62
    11
 10
559791
 20
3256855
  0
VERTEX
  8
RA_6120
 62
    11
 10
559784
 20
3256872
  0
VERTEX
  8
RA_6120
 62
    11
 10
559800
 20
3256884
  0
VERTEX
  8
RA_6120
 62
    11
 10
559857
 20
3256907
  0
VERTEX
  8
RA_6120
 62
    11
 10
559888
 20
3256923
  0
VERTEX
  8
RA_6120
 62
    11
 10
559901
 20
3256939
  0
VERTEX
  8
RA_6120
 62
    11
 10
559928
 20
3256987
  0
VERTEX
  8
RA_6120
 62
    11
 10
559953
 20
3256999
  0
VERTEX
  8
RA_6120
 62
    11
 10
559989
 20
3257003
  0
VERTEX
  8
RA_6120
 62
    11
 10
560030
 20
3257003
  0
VERTEX
  8
RA_6120
 62
    11
 10
560125
 20
3257005
  0
VERTEX
  8
RA_6120
 62
    11
 10
560145
 20
3257017
  0
VERTEX
  8
RA_6120
 62
    11
 10
560146
 20
3257048
  0
VERTEX
  8
RA_6120
 62
    11
 10
560141
 20
3257080
  0
VERTEX
  8
RA_6120
 62
    11
 10
560169
 20
3257098
  0
VERTEX
  8
RA_6120
 62
    11
 10
560226
 20
3257095
  0
VERTEX
  8
RA_6120
 62
    11
 10
560262
 20
3257090
  0
VERTEX
  8
RA_6120
 62
    11
 10
560294
 20
3257077
  0
VERTEX
  8
RA_6120
 62
    11
 10
560317
 20
3257058
  0
VERTEX
  8
RA_6120
 62
    11
 10
560338
 20
3257053
  0
VERTEX
  8
RA_6120
 62
    11
 10
560375
 20
3257048
  0
VERTEX
  8
RA_6120
 62
    11
 10
560399
 20
3257050
  0
VERTEX
  8
RA_6120
 62
    11
 10
560438
 20
3257050
  0
VERTEX
  8
RA_6120
 62
    11
 10
560450
 20
3257065
  0
VERTEX
  8
RA_6120
 62
    11
 10
560447
 20
3257085
  0
VERTEX
  8
RA_6120
 62
    11
 10
560466
 20
3257087
  0
VERTEX
  8
RA_6120
 62
    11
 10
560492
 20
3257073
  0
VERTEX
  8
RA_6120
 62
    11
 10
560510
 20
3257058
  0
VERTEX
  8
RA_6120
 62
    11
 10
560532
 20
3257035
  0
VERTEX
  8
RA_6120
 62
    11
 10
560552
 20
3257007
  0
VERTEX
  8
RA_6120
 62
    11
 10
560567
 20
3256993
  0
VERTEX
  8
RA_6120
 62
    11
 10
560597
 20
3257002
  0
VERTEX
  8
RA_6120
 62
    11
 10
560637
 20
3257007
  0
VERTEX
  8
RA_6120
 62
    11
 10
560664
 20
3256988
  0
VERTEX
  8
RA_6120
 62
    11
 10
560675
 20
3256975
  0
VERTEX
  8
RA_6120
 62
    11
 10
560697
 20
3256976
  0
VERTEX
  8
RA_6120
 62
    11
 10
560725
 20
3256984
  0
VERTEX
  8
RA_6120
 62
    11
 10
560766
 20
3256998
  0
VERTEX
  8
RA_6120
 62
    11
 10
560815
 20
3257013
  0
VERTEX
  8
RA_6120
 62
    11
 10
560865
 20
3257023
  0
VERTEX
  8
RA_6120
 62
    11
 10
560917
 20
3257034
  0
VERTEX
  8
RA_6120
 62
    11
 10
561004
 20
3257065
  0
VERTEX
  8
RA_6120
 62
    11
 10
561052
 20
3257080
  0
VERTEX
  8
RA_6120
 62
    11
 10
561106
 20
3257084
  0
VERTEX
  8
RA_6120
 62
    11
 10
561200
 20
3257075
  0
VERTEX
  8
RA_6120
 62
    11
 10
561262
 20
3257069
  0
VERTEX
  8
RA_6120
 62
    11
 10
561314
 20
3257056
  0
VERTEX
  8
RA_6120
 62
    11
 10
561348
 20
3257046
  0
VERTEX
  8
RA_6120
 62
    11
 10
561375
 20
3257034
  0
VERTEX
  8
RA_6120
 62
    11
 10
561393
 20
3257027
  0
VERTEX
  8
RA_6120
 62
    11
 10
561413
 20
3257014
  0
VERTEX
  8
RA_6120
 62
    11
 10
561448
 20
3257006
  0
VERTEX
  8
RA_6120
 62
    11
 10
561472
 20
3256986
  0
VERTEX
  8
RA_6120
 62
    11
 10
561494
 20
3256970
  0
VERTEX
  8
RA_6120
 62
    11
 10
561532
 20
3256961
  0
VERTEX
  8
RA_6120
 62
    11
 10
561584
 20
3256959
  0
VERTEX
  8
RA_6120
 62
    11
 10
561642
 20
3256959
  0
VERTEX
  8
RA_6120
 62
    11
 10
561668
 20
3256969
  0
VERTEX
  8
RA_6120
 62
    11
 10
561680
 20
3256986
  0
VERTEX
  8
RA_6120
 62
    11
 10
561693
 20
3257005
  0
VERTEX
  8
RA_6120
 62
    11
 10
561719
 20
3257007
  0
VERTEX
  8
RA_6120
 62
    11
 10
561741
 20
3256988
  0
VERTEX
  8
RA_6120
 62
    11
 10
561763
 20
3256965
  0
VERTEX
  8
RA_6120
 62
    11
 10
561787
 20
3256953
  0
VERTEX
  8
RA_6120
 62
    11
 10
561815
 20
3256944
  0
VERTEX
  8
RA_6120
 62
    11
 10
561895
 20
3256922
  0
VERTEX
  8
RA_6120
 62
    11
 10
561932
 20
3256915
  0
VERTEX
  8
RA_6120
 62
    11
 10
561964
 20
3256911
  0
VERTEX
  8
RA_6120
 62
    11
 10
561982
 20
3256919
  0
VERTEX
  8
RA_6120
 62
    11
 10
561998
 20
3256928
  0
VERTEX
  8
RA_6120
 62
    11
 10
562030
 20
3256935
  0
VERTEX
  8
RA_6120
 62
    11
 10
562090
 20
3256941
  0
VERTEX
  8
RA_6120
 62
    11
 10
562137
 20
3256941
  0
VERTEX
  8
RA_6120
 62
    11
 10
562179
 20
3256945
  0
VERTEX
  8
RA_6120
 62
    11
 10
562186
 20
3256936
  0
VERTEX
  8
RA_6120
 62
    11
 10
562187
 20
3256918
  0
VERTEX
  8
RA_6120
 62
    11
 10
562170
 20
3256857
  0
VERTEX
  8
RA_6120
 62
    11
 10
562194
 20
3256816
  0
VERTEX
  8
RA_6120
 62
    11
 10
562284
 20
3256817
  0
VERTEX
  8
RA_6120
 62
    11
 10
562312
 20
3256829
  0
VERTEX
  8
RA_6120
 62
    11
 10
562342
 20
3256841
  0
VERTEX
  8
RA_6120
 62
    11
 10
562370
 20
3256857
  0
VERTEX
  8
RA_6120
 62
    11
 10
562383
 20
3256871
  0
VERTEX
  8
RA_6120
 62
    11
 10
562431
 20
3256890
  0
VERTEX
  8
RA_6120
 62
    11
 10
562483
 20
3256906
  0
SEQEND
  0
POLYLINE
  8
RA_6120
  6
CONTINUOUS
 62
    11
 66
     1
  0
VERTEX
  8
RA_6120
 62
    11
 10
562484
 20
3256975
  0
VERTEX
  8
RA_6120
 62
    11
 10
562483
 20
3256906
  0
SEQEND
  0
POLYLINE
  8
RA_6120
  6
CONTINUOUS
 62
    11
 66
     1
  0
VERTEX
  8
RA_6120
 62
    11
 10
534388
 20
3237901
  0
VERTEX
  8
RA_6120
 62
    11
 10
534369
 20
3237881
  0
SEQEND
  0
POLYLINE
  8
RA_6120
  6
CONTINUOUS
 62
    11
 66
     1
  0
VERTEX
  8
RA_6120
 62
    11
 10
534369
 20
3237881
  0
VERTEX
  8
RA_6120
 62
    11
 10
534345
 20
3237875
  0
VERTEX
  8
RA_6120
 62
    11
 10
534331
 20
3237884
  0
VERTEX
  8
RA_6120
 62
    11
 10
534324
 20
3237902
  0
VERTEX
  8
RA_6120
 62
    11
 10
534312
 20
3237935
  0
VERTEX
  8
RA_6120
 62
    11
 10
534305
 20
3237957
  0
VERTEX
  8
RA_6120
 62
    11
 10
534315
 20
3237980
  0
VERTEX
  8
RA_6120
 62
    11
 10
534336
 20
3237994
  0
VERTEX
  8
RA_6120
 62
    11
 10
534392
 20
3238015
  0
VERTEX
  8
RA_6120
 62
    11
 10
534450
 20
3238037
  0
VERTEX
  8
RA_6120
 62
    11
 10
534471
 20
3238048
  0
VERTEX
  8
RA_6120
 62
    11
 10
534463
 20
3238068
  0
VERTEX
  8
RA_6120
 62
    11
 10
534447
 20
3238102
  0
VERTEX
  8
RA_6120
 62
    11
 10
534433
 20
3238120
  0
VERTEX
  8
RA_6120
 62
    11
 10
534415
 20
3238130
  0
VERTEX
  8
RA_6120
 62
    11
 10
534417
 20
3238149
  0
VERTEX
  8
RA_6120
 62
    11
 10
534442
 20
3238179
  0
VERTEX
  8
RA_6120
 62
    11
 10
534459
 20
3238205
  0
VERTEX
  8
RA_6120
 62
    11
 10
534472
 20
3238224
  0
VERTEX
  8
RA_6120
 62
    11
 10
534502
 20
3238248
  0
VERTEX
  8
RA_6120
 62
    11
 10
534503
 20
3238275
  0
VERTEX
  8
RA_6120
 62
    11
 10
534491
 20
3238309
  0
VERTEX
  8
RA_6120
 62
    11
 10
534532
 20
3238323
  0
VERTEX
  8
RA_6120
 62
    11
 10
534564
 20
3238337
  0
VERTEX
  8
RA_6120
 62
    11
 10
534567
 20
3238345
  0
VERTEX
  8
RA_6120
 62
    11
 10
534577
 20
3238357
  0
VERTEX
  8
RA_6120
 62
    11
 10
534607
 20
3238345
  0
VERTEX
  8
RA_6120
 62
    11
 10
534609
 20
3238329
  0
VERTEX
  8
RA_6120
 62
    11
 10
534599
 20
3238314
  0
VERTEX
  8
RA_6120
 62
    11
 10
534590
 20
3238291
  0
VERTEX
  8
RA_6120
 62
    11
 10
534599
 20
3238274
  0
VERTEX
  8
RA_6120
 62
    11
 10
534620
 20
3238276
  0
VERTEX
  8
RA_6120
 62
    11
 10
534645
 20
3238288
  0
VERTEX
  8
RA_6120
 62
    11
 10
534674
 20
3238288
  0
VERTEX
  8
RA_6120
 62
    11
 10
534702
 20
3238273
  0
VERTEX
  8
RA_6120
 62
    11
 10
534723
 20
3238255
  0
VERTEX
  8
RA_6120
 62
    11
 10
534738
 20
3238238
  0
VERTEX
  8
RA_6120
 62
    11
 10
534764
 20
3238235
  0
VERTEX
  8
RA_6120
 62
    11
 10
534785
 20
3238230
  0
VERTEX
  8
RA_6120
 62
    11
 10
534787
 20
3238228
  0
VERTEX
  8
RA_6120
 62
    11
 10
534807
 20
3238217
  0
VERTEX
  8
RA_6120
 62
    11
 10
534852
 20
3238233
  0
VERTEX
  8
RA_6120
 62
    11
 10
534892
 20
3238249
  0
VERTEX
  8
RA_6120
 62
    11
 10
534922
 20
3238255
  0
VERTEX
  8
RA_6120
 62
    11
 10
534942
 20
3238227
  0
VERTEX
  8
RA_6120
 62
    11
 10
534988
 20
3238141
  0
VERTEX
  8
RA_6120
 62
    11
 10
535019
 20
3238072
  0
VERTEX
  8
RA_6120
 62
    11
 10
535029
 20
3238015
  0
VERTEX
  8
RA_6120
 62
    11
 10
535030
 20
3237995
  0
VERTEX
  8
RA_6120
 62
    11
 10
535025
 20
3237972
  0
VERTEX
  8
RA_6120
 62
    11
 10
535020
 20
3237936
  0
VERTEX
  8
RA_6120
 62
    11
 10
535029
 20
3237894
  0
VERTEX
  8
RA_6120
 62
    11
 10
535061
 20
3237851
  0
VERTEX
  8
RA_6120
 62
    11
 10
535085
 20
3237840
  0
VERTEX
  8
RA_6120
 62
    11
 10
535110
 20
3237836
  0
VERTEX
  8
RA_6120
 62
    11
 10
535125
 20
3237848
  0
VERTEX
  8
RA_6120
 62
    11
 10
535126
 20
3237873
  0
VERTEX
  8
RA_6120
 62
    11
 10
535111
 20
3237904
  0
VERTEX
  8
RA_6120
 62
    11
 10
535118
 20
3237929
  0
VERTEX
  8
RA_6120
 62
    11
 10
535119
 20
3237973
  0
VERTEX
  8
RA_6120
 62
    11
 10
535147
 20
3237985
  0
VERTEX
  8
RA_6120
 62
    11
 10
535169
 20
3237992
  0
VERTEX
  8
RA_6120
 62
    11
 10
535179
 20
3238007
  0
VERTEX
  8
RA_6120
 62
    11
 10
535190
 20
3238023
  0
VERTEX
  8
RA_6120
 62
    11
 10
535207
 20
3238040
  0
VERTEX
  8
RA_6120
 62
    11
 10
535260
 20
3238041
  0
VERTEX
  8
RA_6120
 62
    11
 10
535289
 20
3238057
  0
SEQEND
  0
POLYLINE
  8
RA_6120
  6
CONTINUOUS
 62
    11
 66
     1
  0
VERTEX
  8
RA_6120
 62
    11
 10
535289
 20
3238057
  0
VERTEX
  8
RA_6120
 62
    11
 10
535306
 20
3238052
  0
VERTEX
  8
RA_6120
 62
    11
 10
535319
 20
3238049
  0
VERTEX
  8
RA_6120
 62
    11
 10
535335
 20
3238039
  0
VERTEX
  8
RA_6120
 62
    11
 10
535344
 20
3238005
  0
VERTEX
  8
RA_6120
 62
    11
 10
535357
 20
3237954
  0
SEQEND
  0
POLYLINE
  8
RA_6120
  6
CONTINUOUS
 62
    11
 66
     1
  0
VERTEX
  8
RA_6120
 62
    11
 10
535357
 20
3237954
  0
VERTEX
  8
RA_6120
 62
    11
 10
535382
 20
3237966
  0
VERTEX
  8
RA_6120
 62
    11
 10
535410
 20
3237984
  0
VERTEX
  8
RA_6120
 62
    11
 10
535444
 20
3237997
  0
VERTEX
  8
RA_6120
 62
    11
 10
535476
 20
3238019
  0
VERTEX
  8
RA_6120
 62
    11
 10
535550
 20
3238074
  0
VERTEX
  8
RA_6120
 62
    11
 10
535590
 20
3238102
  0
VERTEX
  8
RA_6120
 62
    11
 10
535623
 20
3238128
  0
VERTEX
  8
RA_6120
 62
    11
 10
535750
 20
3238217
  0
VERTEX
  8
RA_6120
 62
    11
 10
535780
 20
3238224
  0
VERTEX
  8
RA_6120
 62
    11
 10
535803
 20
3238244
  0
VERTEX
  8
RA_6120
 62
    11
 10
535823
 20
3238249
  0
VERTEX
  8
RA_6120
 62
    11
 10
535848
 20
3238266
  0
VERTEX
  8
RA_6120
 62
    11
 10
535868
 20
3238276
  0
VERTEX
  8
RA_6120
 62
    11
 10
535888
 20
3238265
  0
VERTEX
  8
RA_6120
 62
    11
 10
535903
 20
3238256
  0
VERTEX
  8
RA_6120
 62
    11
 10
535925
 20
3238263
  0
VERTEX
  8
RA_6120
 62
    11
 10
535946
 20
3238282
  0
VERTEX
  8
RA_6120
 62
    11
 10
536052
 20
3238371
  0
VERTEX
  8
RA_6120
 62
    11
 10
536074
 20
3238389
  0
VERTEX
  8
RA_6120
 62
    11
 10
536055
 20
3238416
  0
VERTEX
  8
RA_6120
 62
    11
 10
535990
 20
3238502
  0
VERTEX
  8
RA_6120
 62
    11
 10
535969
 20
3238510
  0
VERTEX
  8
RA_6120
 62
    11
 10
535933
 20
3238495
  0
VERTEX
  8
RA_6120
 62
    11
 10
535903
 20
3238480
  0
VERTEX
  8
RA_6120
 62
    11
 10
535865
 20
3238467
  0
VERTEX
  8
RA_6120
 62
    11
 10
535800
 20
3238427
  0
VERTEX
  8
RA_6120
 62
    11
 10
535766
 20
3238412
  0
VERTEX
  8
RA_6120
 62
    11
 10
535740
 20
3238388
  0
VERTEX
  8
RA_6120
 62
    11
 10
535677
 20
3238311
  0
VERTEX
  8
RA_6120
 62
    11
 10
535653
 20
3238287
  0
VERTEX
  8
RA_6120
 62
    11
 10
535619
 20
3238241
  0
VERTEX
  8
RA_6120
 62
    11
 10
535600
 20
3238223
  0
VERTEX
  8
RA_6120
 62
    11
 10
535580
 20
3238210
  0
VERTEX
  8
RA_6120
 62
    11
 10
535560
 20
3238204
  0
VERTEX
  8
RA_6120
 62
    11
 10
535545
 20
3238195
  0
VERTEX
  8
RA_6120
 62
    11
 10
535528
 20
3238186
  0
VERTEX
  8
RA_6120
 62
    11
 10
535518
 20
3238197
  0
VERTEX
  8
RA_6120
 62
    11
 10
535517
 20
3238221
  0
VERTEX
  8
RA_6120
 62
    11
 10
535517
 20
3238263
  0
VERTEX
  8
RA_6120
 62
    11
 10
535506
 20
3238279
  0
VERTEX
  8
RA_6120
 62
    11
 10
535411
 20
3238418
  0
VERTEX
  8
RA_6120
 62
    11
 10
535361
 20
3238481
  0
VERTEX
  8
RA_6120
 62
    11
 10
535360
 20
3238496
  0
VERTEX
  8
RA_6120
 62
    11
 10
535379
 20
3238512
  0
VERTEX
  8
RA_6120
 62
    11
 10
535457
 20
3238587
  0
VERTEX
  8
RA_6120
 62
    11
 10
535509
 20
3238645
  0
VERTEX
  8
RA_6120
 62
    11
 10
535567
 20
3238710
  0
VERTEX
  8
RA_6120
 62
    11
 10
535593
 20
3238742
  0
VERTEX
  8
RA_6120
 62
    11
 10
535601
 20
3238775
  0
SEQEND
  0
POLYLINE
  8
RA_6120
  6
CONTINUOUS
 62
    11
 66
     1
  0
VERTEX
  8
RA_6120
 62
    11
 10
535601
 20
3238775
  0
VERTEX
  8
RA_6120
 62
    11
 10
535792
 20
3238893
  0
VERTEX
  8
RA_6120
 62
    11
 10
535870
 20
3238889
  0
VERTEX
  8
RA_6120
 62
    11
 10
535932
 20
3238886
  0
VERTEX
  8
RA_6120
 62
    11
 10
536043
 20
3238916
  0
SEQEND
  0
POLYLINE
  8
RA_6120
  6
CONTINUOUS
 62
    11
 66
     1
  0
VERTEX
  8
RA_6120
 62
    11
 10
536043
 20
3238916
  0
VERTEX
  8
RA_6120
 62
    11
 10
536055
 20
3238904
  0
VERTEX
  8
RA_6120
 62
    11
 10
536056
 20
3238885
  0
VERTEX
  8
RA_6120
 62
    11
 10
536039
 20
3238858
  0
VERTEX
  8
RA_6120
 62
    11
 10
536022
 20
3238842
  0
VERTEX
  8
RA_6120
 62
    11
 10
536009
 20
3238819
  0
VERTEX
  8
RA_6120
 62
    11
 10
536025
 20
3238797
  0
VERTEX
  8
RA_6120
 62
    11
 10
536073
 20
3238774
  0
VERTEX
  8
RA_6120
 62
    11
 10
536100
 20
3238760
  0
VERTEX
  8
RA_6120
 62
    11
 10
536124
 20
3238749
  0
VERTEX
  8
RA_6120
 62
    11
 10
536144
 20
3238756
  0
VERTEX
  8
RA_6120
 62
    11
 10
536149
 20
3238782
  0
VERTEX
  8
RA_6120
 62
    11
 10
536164
 20
3238805
  0
VERTEX
  8
RA_6120
 62
    11
 10
536168
 20
3238829
  0
VERTEX
  8
RA_6120
 62
    11
 10
536156
 20
3238848
  0
VERTEX
  8
RA_6120
 62
    11
 10
536141
 20
3238869
  0
VERTEX
  8
RA_6120
 62
    11
 10
536130
 20
3238892
  0
VERTEX
  8
RA_6120
 62
    11
 10
536129
 20
3238914
  0
VERTEX
  8
RA_6120
 62
    11
 10
536154
 20
3238920
  0
VERTEX
  8
RA_6120
 62
    11
 10
536192
 20
3238924
  0
VERTEX
  8
RA_6120
 62
    11
 10
536244
 20
3238936
  0
VERTEX
  8
RA_6120
 62
    11
 10
536267
 20
3238952
  0
VERTEX
  8
RA_6120
 62
    11
 10
536300
 20
3238966
  0
VERTEX
  8
RA_6120
 62
    11
 10
536322
 20
3238975
  0
VERTEX
  8
RA_6120
 62
    11
 10
536337
 20
3238966
  0
VERTEX
  8
RA_6120
 62
    11
 10
536330
 20
3238944
  0
VERTEX
  8
RA_6120
 62
    11
 10
536312
 20
3238932
  0
VERTEX
  8
RA_6120
 62
    11
 10
536313
 20
3238915
  0
VERTEX
  8
RA_6120
 62
    11
 10
536324
 20
3238908
  0
VERTEX
  8
RA_6120
 62
    11
 10
536365
 20
3238912
  0
VERTEX
  8
RA_6120
 62
    11
 10
536388
 20
3238902
  0
VERTEX
  8
RA_6120
 62
    11
 10
536418
 20
3238896
  0
VERTEX
  8
RA_6120
 62
    11
 10
536432
 20
3238876
  0
VERTEX
  8
RA_6120
 62
    11
 10
536436
 20
3238852
  0
VERTEX
  8
RA_6120
 62
    11
 10
536450
 20
3238847
  0
VERTEX
  8
RA_6120
 62
    11
 10
536468
 20
3238863
  0
VERTEX
  8
RA_6120
 62
    11
 10
536469
 20
3238880
  0
VERTEX
  8
RA_6120
 62
    11
 10
536473
 20
3238895
  0
VERTEX
  8
RA_6120
 62
    11
 10
536494
 20
3238892
  0
VERTEX
  8
RA_6120
 62
    11
 10
536519
 20
3238909
  0
VERTEX
  8
RA_6120
 62
    11
 10
536548
 20
3238931
  0
VERTEX
  8
RA_6120
 62
    11
 10
536580
 20
3238938
  0
VERTEX
  8
RA_6120
 62
    11
 10
536591
 20
3238953
  0
VERTEX
  8
RA_6120
 62
    11
 10
536581
 20
3238971
  0
VERTEX
  8
RA_6120
 62
    11
 10
536539
 20
3239003
  0
VERTEX
  8
RA_6120
 62
    11
 10
536512
 20
3239022
  0
VERTEX
  8
RA_6120
 62
    11
 10
536491
 20
3239038
  0
VERTEX
  8
RA_6120
 62
    11
 10
536473
 20
3239051
  0
VERTEX
  8
RA_6120
 62
    11
 10
536474
 20
3239069
  0
VERTEX
  8
RA_6120
 62
    11
 10
536517
 20
3239124
  0
VERTEX
  8
RA_6120
 62
    11
 10
536542
 20
3239133
  0
VERTEX
  8
RA_6120
 62
    11
 10
536573
 20
3239120
  0
VERTEX
  8
RA_6120
 62
    11
 10
536592
 20
3239102
  0
VERTEX
  8
RA_6120
 62
    11
 10
536614
 20
3239087
  0
VERTEX
  8
RA_6120
 62
    11
 10
536635
 20
3239074
  0
VERTEX
  8
RA_6120
 62
    11
 10
536647
 20
3239063
  0
VERTEX
  8
RA_6120
 62
    11
 10
536643
 20
3239044
  0
VERTEX
  8
RA_6120
 62
    11
 10
536631
 20
3239024
  0
VERTEX
  8
RA_6120
 62
    11
 10
536628
 20
3238998
  0
VERTEX
  8
RA_6120
 62
    11
 10
536648
 20
3238986
  0
VERTEX
  8
RA_6120
 62
    11
 10
536674
 20
3239004
  0
VERTEX
  8
RA_6120
 62
    11
 10
536696
 20
3239028
  0
VERTEX
  8
RA_6120
 62
    11
 10
536716
 20
3239044
  0
VERTEX
  8
RA_6120
 62
    11
 10
536735
 20
3239038
  0
VERTEX
  8
RA_6120
 62
    11
 10
536747
 20
3239020
  0
VERTEX
  8
RA_6120
 62
    11
 10
536737
 20
3238992
  0
VERTEX
  8
RA_6120
 62
    11
 10
536741
 20
3238925
  0
VERTEX
  8
RA_6120
 62
    11
 10
536731
 20
3238888
  0
VERTEX
  8
RA_6120
 62
    11
 10
536739
 20
3238877
  0
VERTEX
  8
RA_6120
 62
    11
 10
536762
 20
3238871
  0
SEQEND
  0
POLYLINE
  8
RA_6120
  6
CONTINUOUS
 62
    11
 66
     1
  0
VERTEX
  8
RA_6120
 62
    11
 10
536762
 20
3238871
  0
VERTEX
  8
RA_6120
 62
    11
 10
536782
 20
3238867
  0
VERTEX
  8
RA_6120
 62
    11
 10
536846
 20
3238862
  0
VERTEX
  8
RA_6120
 62
    11
 10
536893
 20
3238855
  0
VERTEX
  8
RA_6120
 62
    11
 10
536909
 20
3238852
  0
VERTEX
  8
RA_6120
 62
    11
 10
536917
 20
3238841
  0
VERTEX
  8
RA_6120
 62
    11
 10
536923
 20
3238820
  0
VERTEX
  8
RA_6120
 62
    11
 10
536931
 20
3238715
  0
VERTEX
  8
RA_6120
 62
    11
 10
536932
 20
3238616
  0
VERTEX
  8
RA_6120
 62
    11
 10
536935
 20
3238512
  0
VERTEX
  8
RA_6120
 62
    11
 10
536938
 20
3238481
  0
VERTEX
  8
RA_6120
 62
    11
 10
536941
 20
3238445
  0
VERTEX
  8
RA_6120
 62
    11
 10
536942
 20
3238419
  0
SEQEND
  0
POLYLINE
  8
RA_6120
  6
CONTINUOUS
 62
    11
 66
     1
  0
VERTEX
  8
RA_6120
 62
    11
 10
536942
 20
3238419
  0
VERTEX
  8
RA_6120
 62
    11
 10
536917
 20
3238425
  0
VERTEX
  8
RA_6120
 62
    11
 10
536873
 20
3238433
  0
VERTEX
  8
RA_6120
 62
    11
 10
536847
 20
3238443
  0
VERTEX
  8
RA_6120
 62
    11
 10
536821
 20
3238447
  0
VERTEX
  8
RA_6120
 62
    11
 10
536800
 20
3238451
  0
VERTEX
  8
RA_6120
 62
    11
 10
536762
 20
3238458
  0
VERTEX
  8
RA_6120
 62
    11
 10
536732
 20
3238457
  0
SEQEND
  0
POLYLINE
  8
RA_6120
  6
CONTINUOUS
 62
    11
 66
     1
  0
VERTEX
  8
RA_6120
 62
    11
 10
536690
 20
3238269
  0
VERTEX
  8
RA_6120
 62
    11
 10
536699
 20
3238321
  0
VERTEX
  8
RA_6120
 62
    11
 10
536732
 20
3238457
  0
SEQEND
  0
POLYLINE
  8
RA_6120
  6
CONTINUOUS
 62
    11
 66
     1
  0
VERTEX
  8
RA_6120
 62
    11
 10
535552
 20
3236962
  0
VERTEX
  8
RA_6120
 62
    11
 10
535525
 20
3236939
  0
VERTEX
  8
RA_6120
 62
    11
 10
535505
 20
3236921
  0
VERTEX
  8
RA_6120
 62
    11
 10
535409
 20
3236831
  0
VERTEX
  8
RA_6120
 62
    11
 10
535389
 20
3236818
  0
VERTEX
  8
RA_6120
 62
    11
 10
535375
 20
3236798
  0
VERTEX
  8
RA_6120
 62
    11
 10
535370
 20
3236776
  0
VERTEX
  8
RA_6120
 62
    11
 10
535387
 20
3236767
  0
VERTEX
  8
RA_6120
 62
    11
 10
535404
 20
3236775
  0
VERTEX
  8
RA_6120
 62
    11
 10
535451
 20
3236798
  0
VERTEX
  8
RA_6120
 62
    11
 10
535475
 20
3236806
  0
VERTEX
  8
RA_6120
 62
    11
 10
535498
 20
3236815
  0
VERTEX
  8
RA_6120
 62
    11
 10
535535
 20
3236835
  0
VERTEX
  8
RA_6120
 62
    11
 10
535566
 20
3236847
  0
VERTEX
  8
RA_6120
 62
    11
 10
535577
 20
3236848
  0
VERTEX
  8
RA_6120
 62
    11
 10
535588
 20
3236851
  0
VERTEX
  8
RA_6120
 62
    11
 10
535647
 20
3236903
  0
VERTEX
  8
RA_6120
 62
    11
 10
535759
 20
3237006
  0
VERTEX
  8
RA_6120
 62
    11
 10
535808
 20
3237045
  0
VERTEX
  8
RA_6120
 62
    11
 10
535827
 20
3237054
  0
VERTEX
  8
RA_6120
 62
    11
 10
535846
 20
3237054
  0
VERTEX
  8
RA_6120
 62
    11
 10
535868
 20
3237062
  0
VERTEX
  8
RA_6120
 62
    11
 10
535887
 20
3237076
  0
VERTEX
  8
RA_6120
 62
    11
 10
535985
 20
3237160
  0
VERTEX
  8
RA_6120
 62
    11
 10
536059
 20
3237231
  0
VERTEX
  8
RA_6120
 62
    11
 10
536138
 20
3237291
  0
VERTEX
  8
RA_6120
 62
    11
 10
536157
 20
3237324
  0
VERTEX
  8
RA_6120
 62
    11
 10
536202
 20
3237413
  0
VERTEX
  8
RA_6120
 62
    11
 10
536226
 20
3237488
  0
VERTEX
  8
RA_6120
 62
    11
 10
536233
 20
3237588
  0
VERTEX
  8
RA_6120
 62
    11
 10
536218
 20
3237625
  0
VERTEX
  8
RA_6120
 62
    11
 10
536198
 20
3237638
  0
VERTEX
  8
RA_6120
 62
    11
 10
536067
 20
3237732
  0
VERTEX
  8
RA_6120
 62
    11
 10
536022
 20
3237763
  0
VERTEX
  8
RA_6120
 62
    11
 10
535995
 20
3237777
  0
VERTEX
  8
RA_6120
 62
    11
 10
535991
 20
3237799
  0
VERTEX
  8
RA_6120
 62
    11
 10
536014
 20
3237823
  0
VERTEX
  8
RA_6120
 62
    11
 10
536094
 20
3237906
  0
VERTEX
  8
RA_6120
 62
    11
 10
536113
 20
3237919
  0
VERTEX
  8
RA_6120
 62
    11
 10
536127
 20
3237916
  0
VERTEX
  8
RA_6120
 62
    11
 10
536219
 20
3237785
  0
VERTEX
  8
RA_6120
 62
    11
 10
536239
 20
3237763
  0
VERTEX
  8
RA_6120
 62
    11
 10
536256
 20
3237747
  0
VERTEX
  8
RA_6120
 62
    11
 10
536273
 20
3237742
  0
VERTEX
  8
RA_6120
 62
    11
 10
536303
 20
3237769
  0
VERTEX
  8
RA_6120
 62
    11
 10
536347
 20
3237796
  0
VERTEX
  8
RA_6120
 62
    11
 10
536394
 20
3237834
  0
VERTEX
  8
RA_6120
 62
    11
 10
536450
 20
3237860
  0
VERTEX
  8
RA_6120
 62
    11
 10
536466
 20
3237869
  0
VERTEX
  8
RA_6120
 62
    11
 10
536477
 20
3237861
  0
VERTEX
  8
RA_6120
 62
    11
 10
536490
 20
3237845
  0
VERTEX
  8
RA_6120
 62
    11
 10
536502
 20
3237820
  0
VERTEX
  8
RA_6120
 62
    11
 10
536506
 20
3237801
  0
VERTEX
  8
RA_6120
 62
    11
 10
536515
 20
3237806
  0
VERTEX
  8
RA_6120
 62
    11
 10
536529
 20
3237825
  0
VERTEX
  8
RA_6120
 62
    11
 10
536547
 20
3237850
  0
VERTEX
  8
RA_6120
 62
    11
 10
536563
 20
3237874
  0
VERTEX
  8
RA_6120
 62
    11
 10
536580
 20
3237903
  0
VERTEX
  8
RA_6120
 62
    11
 10
536581
 20
3237928
  0
VERTEX
  8
RA_6120
 62
    11
 10
536584
 20
3237958
  0
VERTEX
  8
RA_6120
 62
    11
 10
536594
 20
3237971
  0
VERTEX
  8
RA_6120
 62
    11
 10
536611
 20
3237978
  0
VERTEX
  8
RA_6120
 62
    11
 10
536627
 20
3237992
  0
VERTEX
  8
RA_6120
 62
    11
 10
536649
 20
3238031
  0
VERTEX
  8
RA_6120
 62
    11
 10
536669
 20
3238078
  0
VERTEX
  8
RA_6120
 62
    11
 10
536693
 20
3238192
  0
VERTEX
  8
RA_6120
 62
    11
 10
536705
 20
3238238
  0
VERTEX
  8
RA_6120
 62
    11
 10
536700
 20
3238257
  0
VERTEX
  8
RA_6120
 62
    11
 10
536690
 20
3238269
  0
SEQEND
  0
POLYLINE
  8
RA_6120
  6
CONTINUOUS
 62
    11
 66
     1
  0
VERTEX
  8
RA_6120
 62
    11
 10
535533
 20
3237056
  0
VERTEX
  8
RA_6120
 62
    11
 10
535552
 20
3236962
  0
SEQEND
  0
POLYLINE
  8
RA_6120
  6
CONTINUOUS
 62
    11
 66
     1
  0
VERTEX
  8
RA_6120
 62
    11
 10
534774
 20
3236575
  0
VERTEX
  8
RA_6120
 62
    11
 10
534784
 20
3236567
  0
VERTEX
  8
RA_6120
 62
    11
 10
534783
 20
3236552
  0
VERTEX
  8
RA_6120
 62
    11
 10
534777
 20
3236536
  0
VERTEX
  8
RA_6120
 62
    11
 10
534785
 20
3236495
  0
VERTEX
  8
RA_6120
 62
    11
 10
534784
 20
3236469
  0
VERTEX
  8
RA_6120
 62
    11
 10
534772
 20
3236438
  0
VERTEX
  8
RA_6120
 62
    11
 10
534780
 20
3236422
  0
VERTEX
  8
RA_6120
 62
    11
 10
534802
 20
3236425
  0
VERTEX
  8
RA_6120
 62
    11
 10
534850
 20
3236447
  0
VERTEX
  8
RA_6120
 62
    11
 10
534865
 20
3236468
  0
VERTEX
  8
RA_6120
 62
    11
 10
534860
 20
3236507
  0
VERTEX
  8
RA_6120
 62
    11
 10
534868
 20
3236536
  0
VERTEX
  8
RA_6120
 62
    11
 10
534884
 20
3236548
  0
VERTEX
  8
RA_6120
 62
    11
 10
534904
 20
3236553
  0
VERTEX
  8
RA_6120
 62
    11
 10
534930
 20
3236554
  0
VERTEX
  8
RA_6120
 62
    11
 10
534962
 20
3236558
  0
VERTEX
  8
RA_6120
 62
    11
 10
535009
 20
3236562
  0
VERTEX
  8
RA_6120
 62
    11
 10
535041
 20
3236575
  0
VERTEX
  8
RA_6120
 62
    11
 10
535075
 20
3236597
  0
VERTEX
  8
RA_6120
 62
    11
 10
535104
 20
3236622
  0
VERTEX
  8
RA_6120
 62
    11
 10
535106
 20
3236637
  0
VERTEX
  8
RA_6120
 62
    11
 10
535108
 20
3236675.0001
  0
VERTEX
  8
RA_6120
 62
    11
 10
535191
 20
3236719.0001
  0
VERTEX
  8
RA_6120
 62
    11
 10
535233
 20
3236749
  0
VERTEX
  8
RA_6120
 62
    11
 10
535303
 20
3236784
  0
VERTEX
  8
RA_6120
 62
    11
 10
535312
 20
3236804
  0
VERTEX
  8
RA_6120
 62
    11
 10
535295
 20
3236821
  0
VERTEX
  8
RA_6120
 62
    11
 10
535270
 20
3236813
  0
VERTEX
  8
RA_6120
 62
    11
 10
535241
 20
3236797
  0
VERTEX
  8
RA_6120
 62
    11
 10
535187
 20
3236770
  0
VERTEX
  8
RA_6120
 62
    11
 10
535163
 20
3236775
  0
VERTEX
  8
RA_6120
 62
    11
 10
535153
 20
3236792
  0
VERTEX
  8
RA_6120
 62
    11
 10
535156
 20
3236809
  0
VERTEX
  8
RA_6120
 62
    11
 10
535200
 20
3236856
  0
VERTEX
  8
RA_6120
 62
    11
 10
535303
 20
3236951
  0
VERTEX
  8
RA_6120
 62
    11
 10
535328
 20
3236972
  0
VERTEX
  8
RA_6120
 62
    11
 10
535354
 20
3236991
  0
VERTEX
  8
RA_6120
 62
    11
 10
535371
 20
3236987
  0
VERTEX
  8
RA_6120
 62
    11
 10
535391
 20
3236994
  0
VERTEX
  8
RA_6120
 62
    11
 10
535410
 20
3236997
  0
VERTEX
  8
RA_6120
 62
    11
 10
535413
 20
3236982
  0
VERTEX
  8
RA_6120
 62
    11
 10
535427
 20
3236969
  0
VERTEX
  8
RA_6120
 62
    11
 10
535442
 20
3236978
  0
VERTEX
  8
RA_6120
 62
    11
 10
535496
 20
3237025
  0
VERTEX
  8
RA_6120
 62
    11
 10
535498
 20
3237027
  0
VERTEX
  8
RA_6120
 62
    11
 10
535518
 20
3237043
  0
VERTEX
  8
RA_6120
 62
    11
 10
535533
 20
3237056
  0
SEQEND
  0
POLYLINE
  8
RA_6120
  6
CONTINUOUS
 62
    11
 66
     1
  0
VERTEX
  8
RA_6120
 62
    11
 10
533993
 20
3236336
  0
VERTEX
  8
RA_6120
 62
    11
 10
534020
 20
3236305
  0
VERTEX
  8
RA_6120
 62
    11
 10
534049
 20
3236280
  0
VERTEX
  8
RA_6120
 62
    11
 10
534095
 20
3236235
  0
VERTEX
  8
RA_6120
 62
    11
 10
534137
 20
3236211
  0
VERTEX
  8
RA_6120
 62
    11
 10
534167
 20
3236211
  0
VERTEX
  8
RA_6120
 62
    11
 10
534197
 20
3236208
  0
VERTEX
  8
RA_6120
 62
    11
 10
534227
 20
3236188
  0
VERTEX
  8
RA_6120
 62
    11
 10
534256
 20
3236177
  0
VERTEX
  8
RA_6120
 62
    11
 10
534297
 20
3236199
  0
VERTEX
  8
RA_6120
 62
    11
 10
534324
 20
3236217
  0
VERTEX
  8
RA_6120
 62
    11
 10
534460
 20
3236283
  0
VERTEX
  8
RA_6120
 62
    11
 10
534501
 20
3236301
  0
VERTEX
  8
RA_6120
 62
    11
 10
534549
 20
3236315
  0
VERTEX
  8
RA_6120
 62
    11
 10
534589
 20
3236316
  0
VERTEX
  8
RA_6120
 62
    11
 10
534626
 20
3236330
  0
VERTEX
  8
RA_6120
 62
    11
 10
534656
 20
3236352
  0
VERTEX
  8
RA_6120
 62
    11
 10
534677
 20
3236373
  0
VERTEX
  8
RA_6120
 62
    11
 10
534695
 20
3236416
  0
VERTEX
  8
RA_6120
 62
    11
 10
534698
 20
3236440
  0
VERTEX
  8
RA_6120
 62
    11
 10
534713
 20
3236465
  0
VERTEX
  8
RA_6120
 62
    11
 10
534730
 20
3236514
  0
VERTEX
  8
RA_6120
 62
    11
 10
534743
 20
3236546
  0
VERTEX
  8
RA_6120
 62
    11
 10
534756
 20
3236563
  0
VERTEX
  8
RA_6120
 62
    11
 10
534774
 20
3236575
  0
SEQEND
  0
POLYLINE
  8
RA_6120
  6
CONTINUOUS
 62
    11
 66
     1
  0
VERTEX
  8
RA_6120
 62
    11
 10
533154
 20
3236017
  0
VERTEX
  8
RA_6120
 62
    11
 10
533187
 20
3235995
  0
VERTEX
  8
RA_6120
 62
    11
 10
533217
 20
3235961
  0
VERTEX
  8
RA_6120
 62
    11
 10
533229
 20
3235938
  0
VERTEX
  8
RA_6120
 62
    11
 10
533314.0001
 20
3235924
  0
VERTEX
  8
RA_6120
 62
    11
 10
533338
 20
3235916
  0
VERTEX
  8
RA_6120
 62
    11
 10
533398
 20
3235894
  0
VERTEX
  8
RA_6120
 62
    11
 10
533426
 20
3235883
  0
VERTEX
  8
RA_6120
 62
    11
 10
533493
 20
3235880
  0
VERTEX
  8
RA_6120
 62
    11
 10
533581
 20
3235904
  0
VERTEX
  8
RA_6120
 62
    11
 10
533642
 20
3235919
  0
VERTEX
  8
RA_6120
 62
    11
 10
533679
 20
3235939
  0
VERTEX
  8
RA_6120
 62
    11
 10
533699
 20
3235970
  0
VERTEX
  8
RA_6120
 62
    11
 10
533681
 20
3235998
  0
VERTEX
  8
RA_6120
 62
    11
 10
533662
 20
3236012
  0
VERTEX
  8
RA_6120
 62
    11
 10
533629
 20
3236027
  0
VERTEX
  8
RA_6120
 62
    11
 10
533595
 20
3236025
  0
VERTEX
  8
RA_6120
 62
    11
 10
533568
 20
3236035
  0
VERTEX
  8
RA_6120
 62
    11
 10
533554
 20
3236046
  0
VERTEX
  8
RA_6120
 62
    11
 10
533559
 20
3236063
  0
VERTEX
  8
RA_6120
 62
    11
 10
533578
 20
3236078
  0
VERTEX
  8
RA_6120
 62
    11
 10
533614
 20
3236087
  0
VERTEX
  8
RA_6120
 62
    11
 10
533636
 20
3236092
  0
VERTEX
  8
RA_6120
 62
    11
 10
533652
 20
3236101
  0
VERTEX
  8
RA_6120
 62
    11
 10
533668
 20
3236124
  0
VERTEX
  8
RA_6120
 62
    11
 10
533663
 20
3236148
  0
VERTEX
  8
RA_6120
 62
    11
 10
533650
 20
3236204
  0
VERTEX
  8
RA_6120
 62
    11
 10
533599
 20
3236270
  0
VERTEX
  8
RA_6120
 62
    11
 10
533582
 20
3236310
  0
VERTEX
  8
RA_6120
 62
    11
 10
533583
 20
3236328
  0
VERTEX
  8
RA_6120
 62
    11
 10
533620
 20
3236334
  0
VERTEX
  8
RA_6120
 62
    11
 10
533644
 20
3236320
  0
VERTEX
  8
RA_6120
 62
    11
 10
533691
 20
3236324
  0
VERTEX
  8
RA_6120
 62
    11
 10
533741
 20
3236336
  0
VERTEX
  8
RA_6120
 62
    11
 10
533769
 20
3236334
  0
VERTEX
  8
RA_6120
 62
    11
 10
533793
 20
3236334
  0
VERTEX
  8
RA_6120
 62
    11
 10
533838
 20
3236355
  0
VERTEX
  8
RA_6120
 62
    11
 10
533864
 20
3236374
  0
VERTEX
  8
RA_6120
 62
    11
 10
533900
 20
3236390
  0
VERTEX
  8
RA_6120
 62
    11
 10
533929
 20
3236391
  0
VERTEX
  8
RA_6120
 62
    11
 10
533993
 20
3236336
  0
SEQEND
  0
POLYLINE
  8
RA_6120
  6
CONTINUOUS
 62
    11
 66
     1
  0
VERTEX
  8
RA_6120
 62
    11
 10
532963
 20
3235967
  0
VERTEX
  8
RA_6120
 62
    11
 10
532992
 20
3235968
  0
VERTEX
  8
RA_6120
 62
    11
 10
533042
 20
3235993
  0
VERTEX
  8
RA_6120
 62
    11
 10
533068
 20
3236009
  0
VERTEX
  8
RA_6120
 62
    11
 10
533093
 20
3236026
  0
VERTEX
  8
RA_6120
 62
    11
 10
533119
 20
3236027
  0
VERTEX
  8
RA_6120
 62
    11
 10
533154
 20
3236017
  0
SEQEND
  0
POLYLINE
  8
RA_6120
  6
CONTINUOUS
 62
    11
 66
     1
  0
VERTEX
  8
RA_6120
 62
    11
 10
532690
 20
3235764
  0
VERTEX
  8
RA_6120
 62
    11
 10
532678
 20
3235806
  0
VERTEX
  8
RA_6120
 62
    11
 10
532640
 20
3235874
  0
VERTEX
  8
RA_6120
 62
    11
 10
532616
 20
3235916
  0
VERTEX
  8
RA_6120
 62
    11
 10
532600
 20
3235932
  0
VERTEX
  8
RA_6120
 62
    11
 10
532581
 20
3235934
  0
VERTEX
  8
RA_6120
 62
    11
 10
532566
 20
3235929
  0
VERTEX
  8
RA_6120
 62
    11
 10
532555
 20
3235937
  0
VERTEX
  8
RA_6120
 62
    11
 10
532535
 20
3235978
  0
VERTEX
  8
RA_6120
 62
    11
 10
532522
 20
3236002
  0
VERTEX
  8
RA_6120
 62
    11
 10
532511
 20
3236031
  0
VERTEX
  8
RA_6120
 62
    11
 10
532510
 20
3236052
  0
VERTEX
  8
RA_6120
 62
    11
 10
532512
 20
3236053
  0
VERTEX
  8
RA_6120
 62
    11
 10
532576
 20
3236072
  0
VERTEX
  8
RA_6120
 62
    11
 10
532595
 20
3236077
  0
VERTEX
  8
RA_6120
 62
    11
 10
532623
 20
3236087
  0
VERTEX
  8
RA_6120
 62
    11
 10
532681
 20
3236104
  0
VERTEX
  8
RA_6120
 62
    11
 10
532720
 20
3236114
  0
VERTEX
  8
RA_6120
 62
    11
 10
532736
 20
3236124
  0
VERTEX
  8
RA_6120
 62
    11
 10
532750
 20
3236139
  0
VERTEX
  8
RA_6120
 62
    11
 10
532809
 20
3236135
  0
VERTEX
  8
RA_6120
 62
    11
 10
532856
 20
3236103
  0
VERTEX
  8
RA_6120
 62
    11
 10
532882
 20
3236080
  0
VERTEX
  8
RA_6120
 62
    11
 10
532924
 20
3235996
  0
VERTEX
  8
RA_6120
 62
    11
 10
532939
 20
3235979
  0
VERTEX
  8
RA_6120
 62
    11
 10
532963
 20
3235967
  0
SEQEND
  0
POLYLINE
  8
RA_6120
  6
CONTINUOUS
 62
    11
 66
     1
  0
VERTEX
  8
RA_6120
 62
    11
 10
532576
 20
3235731
  0
VERTEX
  8
RA_6120
 62
    11
 10
532654
 20
3235763
  0
VERTEX
  8
RA_6120
 62
    11
 10
532690
 20
3235764
  0
SEQEND
  0
POLYLINE
  8
RA_6120
  6
CONTINUOUS
 62
    11
 66
     1
  0
VERTEX
  8
RA_6120
 62
    11
 10
533543
 20
3236690.0001
  0
VERTEX
  8
RA_6120
 62
    11
 10
533536
 20
3236680.0001
  0
VERTEX
  8
RA_6120
 62
    11
 10
533502
 20
3236619
  0
VERTEX
  8
RA_6120
 62
    11
 10
533493
 20
3236588
  0
VERTEX
  8
RA_6120
 62
    11
 10
533495
 20
3236559
  0
VERTEX
  8
RA_6120
 62
    11
 10
533456
 20
3236494
  0
VERTEX
  8
RA_6120
 62
    11
 10
533451
 20
3236467
  0
VERTEX
  8
RA_6120
 62
    11
 10
533444
 20
3236434
  0
VERTEX
  8
RA_6120
 62
    11
 10
533428
 20
3236414
  0
VERTEX
  8
RA_6120
 62
    11
 10
533413
 20
3236402
  0
VERTEX
  8
RA_6120
 62
    11
 10
533400
 20
3236413
  0
VERTEX
  8
RA_6120
 62
    11
 10
533385
 20
3236419
  0
VERTEX
  8
RA_6120
 62
    11
 10
533342
 20
3236403
  0
VERTEX
  8
RA_6120
 62
    11
 10
533328
 20
3236371
  0
VERTEX
  8
RA_6120
 62
    11
 10
533324.0001
 20
3236351
  0
VERTEX
  8
RA_6120
 62
    11
 10
533304.0001
 20
3236332
  0
VERTEX
  8
RA_6120
 62
    11
 10
533271.0001
 20
3236315
  0
VERTEX
  8
RA_6120
 62
    11
 10
533251.0001
 20
3236298
  0
VERTEX
  8
RA_6120
 62
    11
 10
533251.0001
 20
3236278
  0
VERTEX
  8
RA_6120
 62
    11
 10
533257.0001
 20
3236256
  0
VERTEX
  8
RA_6120
 62
    11
 10
533224
 20
3236235
  0
VERTEX
  8
RA_6120
 62
    11
 10
533195
 20
3236233
  0
VERTEX
  8
RA_6120
 62
    11
 10
533156
 20
3236220
  0
VERTEX
  8
RA_6120
 62
    11
 10
533135
 20
3236223
  0
VERTEX
  8
RA_6120
 62
    11
 10
533113
 20
3236241
  0
VERTEX
  8
RA_6120
 62
    11
 10
533082
 20
3236315
  0
VERTEX
  8
RA_6120
 62
    11
 10
533065
 20
3236337
  0
VERTEX
  8
RA_6120
 62
    11
 10
533066
 20
3236360
  0
VERTEX
  8
RA_6120
 62
    11
 10
533084
 20
3236371
  0
SEQEND
  0
POLYLINE
  8
RA_6120
  6
CONTINUOUS
 62
    11
 66
     1
  0
VERTEX
  8
RA_6120
 62
    11
 10
559539
 20
3258002
  0
VERTEX
  8
RA_6120
 62
    11
 10
559571
 20
3258008
  0
VERTEX
  8
RA_6120
 62
    11
 10
559658
 20
3258018
  0
VERTEX
  8
RA_6120
 62
    11
 10
559756
 20
3258038
  0
VERTEX
  8
RA_6120
 62
    11
 10
559842
 20
3258059
  0
VERTEX
  8
RA_6120
 62
    11
 10
559960
 20
3258099
  0
VERTEX
  8
RA_6120
 62
    11
 10
560089
 20
3258141
  0
VERTEX
  8
RA_6120
 62
    11
 10
560223
 20
3258181
  0
VERTEX
  8
RA_6120
 62
    11
 10
560275
 20
3258200
  0
VERTEX
  8
RA_6120
 62
    11
 10
560325
 20
3258224
  0
VERTEX
  8
RA_6120
 62
    11
 10
560382
 20
3258249
  0
VERTEX
  8
RA_6120
 62
    11
 10
560484
 20
3258298
  0
VERTEX
  8
RA_6120
 62
    11
 10
560532
 20
3258321
  0
VERTEX
  8
RA_6120
 62
    11
 10
560548
 20
3258335
  0
VERTEX
  8
RA_6120
 62
    11
 10
560555
 20
3258351
  0
VERTEX
  8
RA_6120
 62
    11
 10
560551
 20
3258444
  0
VERTEX
  8
RA_6120
 62
    11
 10
560551
 20
3258491
  0
VERTEX
  8
RA_6120
 62
    11
 10
560562
 20
3258502
  0
VERTEX
  8
RA_6120
 62
    11
 10
560589
 20
3258507
  0
VERTEX
  8
RA_6120
 62
    11
 10
560761
 20
3258537
  0
SEQEND
  0
POLYLINE
  8
RA_6120
  6
CONTINUOUS
 62
    11
 66
     1
  0
VERTEX
  8
RA_6120
 62
    11
 10
560761
 20
3258537
  0
VERTEX
  8
RA_6120
 62
    11
 10
560766
 20
3258518
  0
VERTEX
  8
RA_6120
 62
    11
 10
560756
 20
3258491
  0
VERTEX
  8
RA_6120
 62
    11
 10
560751
 20
3258474
  0
VERTEX
  8
RA_6120
 62
    11
 10
560758
 20
3258457
  0
VERTEX
  8
RA_6120
 62
    11
 10
560785
 20
3258443
  0
VERTEX
  8
RA_6120
 62
    11
 10
560841
 20
3258445
  0
VERTEX
  8
RA_6120
 62
    11
 10
560895
 20
3258449
  0
VERTEX
  8
RA_6120
 62
    11
 10
560918
 20
3258455
  0
VERTEX
  8
RA_6120
 62
    11
 10
560945
 20
3258459
  0
VERTEX
  8
RA_6120
 62
    11
 10
560954
 20
3258445
  0
VERTEX
  8
RA_6120
 62
    11
 10
560950
 20
3258387
  0
VERTEX
  8
RA_6120
 62
    11
 10
560960
 20
3258367
  0
VERTEX
  8
RA_6120
 62
    11
 10
560994
 20
3258372
  0
VERTEX
  8
RA_6120
 62
    11
 10
561018
 20
3258385
  0
VERTEX
  8
RA_6120
 62
    11
 10
561024
 20
3258416
  0
VERTEX
  8
RA_6120
 62
    11
 10
561024
 20
3258449
  0
VERTEX
  8
RA_6120
 62
    11
 10
561033
 20
3258513
  0
VERTEX
  8
RA_6120
 62
    11
 10
561054
 20
3258578
  0
VERTEX
  8
RA_6120
 62
    11
 10
561067
 20
3258605
  0
SEQEND
  0
POLYLINE
  8
RA_6120
  6
CONTINUOUS
 62
    11
 66
     1
  0
VERTEX
  8
RA_6120
 62
    11
 10
561067
 20
3258605
  0
VERTEX
  8
RA_6120
 62
    11
 10
561135
 20
3258624
  0
VERTEX
  8
RA_6120
 62
    11
 10
561155
 20
3258622
  0
VERTEX
  8
RA_6120
 62
    11
 10
561162
 20
3258614
  0
VERTEX
  8
RA_6120
 62
    11
 10
561170
 20
3258591
  0
SEQEND
  0
POLYLINE
  8
RA_6120
  6
CONTINUOUS
 62
    11
 66
     1
  0
VERTEX
  8
RA_6120
 62
    11
 10
561073
 20
3257868
  0
VERTEX
  8
RA_6120
 62
    11
 10
561097
 20
3257936
  0
VERTEX
  8
RA_6120
 62
    11
 10
561109
 20
3257980
  0
VERTEX
  8
RA_6120
 62
    11
 10
561121
 20
3258043
  0
VERTEX
  8
RA_6120
 62
    11
 10
561134
 20
3258090
  0
VERTEX
  8
RA_6120
 62
    11
 10
561138
 20
3258115
  0
VERTEX
  8
RA_6120
 62
    11
 10
561140
 20
3258136
  0
VERTEX
  8
RA_6120
 62
    11
 10
561137
 20
3258157
  0
VERTEX
  8
RA_6120
 62
    11
 10
561133
 20
3258189
  0
VERTEX
  8
RA_6120
 62
    11
 10
561134
 20
3258201
  0
VERTEX
  8
RA_6120
 62
    11
 10
561136
 20
3258224
  0
VERTEX
  8
RA_6120
 62
    11
 10
561137
 20
3258248
  0
VERTEX
  8
RA_6120
 62
    11
 10
561137
 20
3258262
  0
VERTEX
  8
RA_6120
 62
    11
 10
561132
 20
3258277
  0
VERTEX
  8
RA_6120
 62
    11
 10
561130
 20
3258322
  0
VERTEX
  8
RA_6120
 62
    11
 10
561140
 20
3258391
  0
VERTEX
  8
RA_6120
 62
    11
 10
561156
 20
3258468
  0
VERTEX
  8
RA_6120
 62
    11
 10
561160
 20
3258535
  0
VERTEX
  8
RA_6120
 62
    11
 10
561168
 20
3258571
  0
VERTEX
  8
RA_6120
 62
    11
 10
561170
 20
3258591
  0
SEQEND
  0
POLYLINE
  8
RA_6120
  6
CONTINUOUS
 62
    11
 66
     1
  0
VERTEX
  8
RA_6120
 62
    11
 10
556578
 20
3255857
  0
VERTEX
  8
RA_6120
 62
    11
 10
556583
 20
3255883
  0
VERTEX
  8
RA_6120
 62
    11
 10
556586
 20
3255901
  0
VERTEX
  8
RA_6120
 62
    11
 10
556582
 20
3255923
  0
VERTEX
  8
RA_6120
 62
    11
 10
556569
 20
3255940
  0
VERTEX
  8
RA_6120
 62
    11
 10
556549
 20
3255947
  0
VERTEX
  8
RA_6120
 62
    11
 10
556527
 20
3255952
  0
VERTEX
  8
RA_6120
 62
    11
 10
556502
 20
3255990
  0
VERTEX
  8
RA_6120
 62
    11
 10
556492
 20
3256013
  0
VERTEX
  8
RA_6120
 62
    11
 10
556483
 20
3256037
  0
VERTEX
  8
RA_6120
 62
    11
 10
556475
 20
3256076
  0
VERTEX
  8
RA_6120
 62
    11
 10
556492
 20
3256124
  0
VERTEX
  8
RA_6120
 62
    11
 10
556519
 20
3256144
  0
VERTEX
  8
RA_6120
 62
    11
 10
556561
 20
3256146
  0
VERTEX
  8
RA_6120
 62
    11
 10
556627
 20
3256156
  0
VERTEX
  8
RA_6120
 62
    11
 10
556680
 20
3256150
  0
VERTEX
  8
RA_6120
 62
    11
 10
556718
 20
3256155
  0
VERTEX
  8
RA_6120
 62
    11
 10
556781
 20
3256171
  0
VERTEX
  8
RA_6120
 62
    11
 10
556826
 20
3256181
  0
VERTEX
  8
RA_6120
 62
    11
 10
556850
 20
3256192
  0
VERTEX
  8
RA_6120
 62
    11
 10
556870
 20
3256220
  0
VERTEX
  8
RA_6120
 62
    11
 10
556889
 20
3256241
  0
VERTEX
  8
RA_6120
 62
    11
 10
556912
 20
3256260
  0
VERTEX
  8
RA_6120
 62
    11
 10
556965
 20
3256274
  0
VERTEX
  8
RA_6120
 62
    11
 10
556993
 20
3256269
  0
VERTEX
  8
RA_6120
 62
    11
 10
557063
 20
3256250
  0
VERTEX
  8
RA_6120
 62
    11
 10
557095
 20
3256241
  0
VERTEX
  8
RA_6120
 62
    11
 10
557164
 20
3256266
  0
VERTEX
  8
RA_6120
 62
    11
 10
557220
 20
3256286
  0
VERTEX
  8
RA_6120
 62
    11
 10
557229
 20
3256289
  0
VERTEX
  8
RA_6120
 62
    11
 10
557263
 20
3256303
  0
VERTEX
  8
RA_6120
 62
    11
 10
557303
 20
3256316
  0
VERTEX
  8
RA_6120
 62
    11
 10
557357
 20
3256336
  0
VERTEX
  8
RA_6120
 62
    11
 10
557385
 20
3256341
  0
VERTEX
  8
RA_6120
 62
    11
 10
557410
 20
3256348
  0
VERTEX
  8
RA_6120
 62
    11
 10
557451
 20
3256358
  0
VERTEX
  8
RA_6120
 62
    11
 10
557476
 20
3256372
  0
VERTEX
  8
RA_6120
 62
    11
 10
557507
 20
3256393
  0
VERTEX
  8
RA_6120
 62
    11
 10
557569
 20
3256446
  0
VERTEX
  8
RA_6120
 62
    11
 10
557588
 20
3256471
  0
VERTEX
  8
RA_6120
 62
    11
 10
557610
 20
3256513
  0
VERTEX
  8
RA_6120
 62
    11
 10
557621
 20
3256546
  0
VERTEX
  8
RA_6120
 62
    11
 10
557616
 20
3256573
  0
VERTEX
  8
RA_6120
 62
    11
 10
557615
 20
3256602
  0
VERTEX
  8
RA_6120
 62
    11
 10
557654
 20
3256631
  0
VERTEX
  8
RA_6120
 62
    11
 10
557668
 20
3256650
  0
VERTEX
  8
RA_6120
 62
    11
 10
557734
 20
3256673
  0
VERTEX
  8
RA_6120
 62
    11
 10
557758
 20
3256694
  0
VERTEX
  8
RA_6120
 62
    11
 10
557836
 20
3256725
  0
VERTEX
  8
RA_6120
 62
    11
 10
557862
 20
3256732
  0
VERTEX
  8
RA_6120
 62
    11
 10
557898
 20
3256740
  0
VERTEX
  8
RA_6120
 62
    11
 10
557932
 20
3256740
  0
VERTEX
  8
RA_6120
 62
    11
 10
557970
 20
3256736
  0
VERTEX
  8
RA_6120
 62
    11
 10
558010
 20
3256729
  0
VERTEX
  8
RA_6120
 62
    11
 10
558039
 20
3256740
  0
VERTEX
  8
RA_6120
 62
    11
 10
558104
 20
3256770
  0
VERTEX
  8
RA_6120
 62
    11
 10
558121
 20
3256790
  0
VERTEX
  8
RA_6120
 62
    11
 10
558112
 20
3256809
  0
VERTEX
  8
RA_6120
 62
    11
 10
558101
 20
3256828
  0
VERTEX
  8
RA_6120
 62
    11
 10
558107
 20
3256843
  0
VERTEX
  8
RA_6120
 62
    11
 10
558146
 20
3256871
  0
VERTEX
  8
RA_6120
 62
    11
 10
558206
 20
3256894
  0
VERTEX
  8
RA_6120
 62
    11
 10
558272
 20
3256914
  0
VERTEX
  8
RA_6120
 62
    11
 10
558325
 20
3256924
  0
VERTEX
  8
RA_6120
 62
    11
 10
558344
 20
3256919
  0
VERTEX
  8
RA_6120
 62
    11
 10
558356
 20
3256887
  0
VERTEX
  8
RA_6120
 62
    11
 10
558384
 20
3256864
  0
VERTEX
  8
RA_6120
 62
    11
 10
558421
 20
3256880
  0
VERTEX
  8
RA_6120
 62
    11
 10
558455
 20
3256892
  0
VERTEX
  8
RA_6120
 62
    11
 10
558484
 20
3256900
  0
VERTEX
  8
RA_6120
 62
    11
 10
558507
 20
3256887
  0
VERTEX
  8
RA_6120
 62
    11
 10
558508
 20
3256866
  0
VERTEX
  8
RA_6120
 62
    11
 10
558525
 20
3256805
  0
VERTEX
  8
RA_6120
 62
    11
 10
558539
 20
3256746
  0
VERTEX
  8
RA_6120
 62
    11
 10
558558
 20
3256731
  0
VERTEX
  8
RA_6120
 62
    11
 10
558605
 20
3256714
  0
VERTEX
  8
RA_6120
 62
    11
 10
558661
 20
3256698
  0
VERTEX
  8
RA_6120
 62
    11
 10
558710
 20
3256691
  0
VERTEX
  8
RA_6120
 62
    11
 10
558757
 20
3256681
  0
VERTEX
  8
RA_6120
 62
    11
 10
558802
 20
3256683
  0
VERTEX
  8
RA_6120
 62
    11
 10
558829
 20
3256677
  0
VERTEX
  8
RA_6120
 62
    11
 10
558874
 20
3256660
  0
VERTEX
  8
RA_6120
 62
    11
 10
558900
 20
3256664
  0
VERTEX
  8
RA_6120
 62
    11
 10
558919
 20
3256675
  0
VERTEX
  8
RA_6120
 62
    11
 10
558943
 20
3256696
  0
VERTEX
  8
RA_6120
 62
    11
 10
558966
 20
3256714
  0
VERTEX
  8
RA_6120
 62
    11
 10
558994
 20
3256714
  0
VERTEX
  8
RA_6120
 62
    11
 10
559037
 20
3256721
  0
VERTEX
  8
RA_6120
 62
    11
 10
559057
 20
3256725
  0
VERTEX
  8
RA_6120
 62
    11
 10
559068
 20
3256741
  0
VERTEX
  8
RA_6120
 62
    11
 10
559060
 20
3256758
  0
VERTEX
  8
RA_6120
 62
    11
 10
559050
 20
3256781
  0
VERTEX
  8
RA_6120
 62
    11
 10
559013
 20
3256827
  0
VERTEX
  8
RA_6120
 62
    11
 10
558993
 20
3256866
  0
VERTEX
  8
RA_6120
 62
    11
 10
558951
 20
3256929
  0
VERTEX
  8
RA_6120
 62
    11
 10
558937
 20
3256948
  0
VERTEX
  8
RA_6120
 62
    11
 10
558914
 20
3256962
  0
VERTEX
  8
RA_6120
 62
    11
 10
558851
 20
3256952
  0
VERTEX
  8
RA_6120
 62
    11
 10
558779
 20
3256935
  0
VERTEX
  8
RA_6120
 62
    11
 10
558739
 20
3256933
  0
VERTEX
  8
RA_6120
 62
    11
 10
558729
 20
3256952
  0
VERTEX
  8
RA_6120
 62
    11
 10
558716
 20
3256969
  0
VERTEX
  8
RA_6120
 62
    11
 10
558698
 20
3256966
  0
VERTEX
  8
RA_6120
 62
    11
 10
558657
 20
3256954
  0
VERTEX
  8
RA_6120
 62
    11
 10
558620
 20
3256939
  0
VERTEX
  8
RA_6120
 62
    11
 10
558599
 20
3256954
  0
VERTEX
  8
RA_6120
 62
    11
 10
558597
 20
3256973
  0
VERTEX
  8
RA_6120
 62
    11
 10
558600
 20
3256993
  0
VERTEX
  8
RA_6120
 62
    11
 10
558610
 20
3257008
  0
VERTEX
  8
RA_6120
 62
    11
 10
558614
 20
3257027
  0
VERTEX
  8
RA_6120
 62
    11
 10
558629
 20
3257046
  0
VERTEX
  8
RA_6120
 62
    11
 10
558643
 20
3257054
  0
VERTEX
  8
RA_6120
 62
    11
 10
558657
 20
3257046
  0
VERTEX
  8
RA_6120
 62
    11
 10
558672
 20
3257031
  0
VERTEX
  8
RA_6120
 62
    11
 10
558691
 20
3257031
  0
VERTEX
  8
RA_6120
 62
    11
 10
558708
 20
3257035
  0
VERTEX
  8
RA_6120
 62
    11
 10
558727
 20
3257054
  0
VERTEX
  8
RA_6120
 62
    11
 10
558745
 20
3257085
  0
VERTEX
  8
RA_6120
 62
    11
 10
558758
 20
3257098
  0
VERTEX
  8
RA_6120
 62
    11
 10
558773
 20
3257108
  0
VERTEX
  8
RA_6120
 62
    11
 10
558781
 20
3257127
  0
VERTEX
  8
RA_6120
 62
    11
 10
558778
 20
3257166
  0
VERTEX
  8
RA_6120
 62
    11
 10
558761
 20
3257183
  0
VERTEX
  8
RA_6120
 62
    11
 10
558761
 20
3257204
  0
VERTEX
  8
RA_6120
 62
    11
 10
558791
 20
3257214
  0
VERTEX
  8
RA_6120
 62
    11
 10
558842
 20
3257223
  0
VERTEX
  8
RA_6120
 62
    11
 10
558887
 20
3257220
  0
VERTEX
  8
RA_6120
 62
    11
 10
558934
 20
3257204
  0
VERTEX
  8
RA_6120
 62
    11
 10
558992
 20
3257187
  0
VERTEX
  8
RA_6120
 62
    11
 10
559026
 20
3257175
  0
VERTEX
  8
RA_6120
 62
    11
 10
559055
 20
3257175
  0
VERTEX
  8
RA_6120
 62
    11
 10
559072
 20
3257186
  0
VERTEX
  8
RA_6120
 62
    11
 10
559076
 20
3257205
  0
VERTEX
  8
RA_6120
 62
    11
 10
559075
 20
3257242
  0
VERTEX
  8
RA_6120
 62
    11
 10
559070
 20
3257265
  0
VERTEX
  8
RA_6120
 62
    11
 10
559084
 20
3257287
  0
VERTEX
  8
RA_6120
 62
    11
 10
559129
 20
3257311
  0
VERTEX
  8
RA_6120
 62
    11
 10
559150
 20
3257328
  0
VERTEX
  8
RA_6120
 62
    11
 10
559188
 20
3257347
  0
VERTEX
  8
RA_6120
 62
    11
 10
559204
 20
3257353
  0
VERTEX
  8
RA_6120
 62
    11
 10
559223
 20
3257356
  0
VERTEX
  8
RA_6120
 62
    11
 10
559242
 20
3257352
  0
VERTEX
  8
RA_6120
 62
    11
 10
559259
 20
3257290
  0
VERTEX
  8
RA_6120
 62
    11
 10
559283
 20
3257143
  0
VERTEX
  8
RA_6120
 62
    11
 10
559299
 20
3257036
  0
VERTEX
  8
RA_6120
 62
    11
 10
559309
 20
3257008
  0
VERTEX
  8
RA_6120
 62
    11
 10
559320
 20
3256989
  0
VERTEX
  8
RA_6120
 62
    11
 10
559335
 20
3256980
  0
VERTEX
  8
RA_6120
 62
    11
 10
559464
 20
3256966
  0
VERTEX
  8
RA_6120
 62
    11
 10
559468
 20
3256966
  0
VERTEX
  8
RA_6120
 62
    11
 10
559509
 20
3256961
  0
VERTEX
  8
RA_6120
 62
    11
 10
559509
 20
3256972
  0
VERTEX
  8
RA_6120
 62
    11
 10
559500
 20
3256986
  0
VERTEX
  8
RA_6120
 62
    11
 10
559489
 20
3257028
  0
VERTEX
  8
RA_6120
 62
    11
 10
559493
 20
3257050
  0
VERTEX
  8
RA_6120
 62
    11
 10
559503
 20
3257081
  0
VERTEX
  8
RA_6120
 62
    11
 10
559518
 20
3257106
  0
VERTEX
  8
RA_6120
 62
    11
 10
559533
 20
3257141
  0
VERTEX
  8
RA_6120
 62
    11
 10
559549
 20
3257169
  0
VERTEX
  8
RA_6120
 62
    11
 10
559557
 20
3257209
  0
VERTEX
  8
RA_6120
 62
    11
 10
559559
 20
3257229
  0
VERTEX
  8
RA_6120
 62
    11
 10
559569
 20
3257249
  0
VERTEX
  8
RA_6120
 62
    11
 10
559601
 20
3257271
  0
VERTEX
  8
RA_6120
 62
    11
 10
559624
 20
3257280
  0
VERTEX
  8
RA_6120
 62
    11
 10
559649
 20
3257295
  0
VERTEX
  8
RA_6120
 62
    11
 10
559674
 20
3257312
  0
VERTEX
  8
RA_6120
 62
    11
 10
559701
 20
3257330
  0
VERTEX
  8
RA_6120
 62
    11
 10
559716
 20
3257347
  0
VERTEX
  8
RA_6120
 62
    11
 10
559719
 20
3257369
  0
VERTEX
  8
RA_6120
 62
    11
 10
559713
 20
3257383
  0
VERTEX
  8
RA_6120
 62
    11
 10
559700
 20
3257399
  0
VERTEX
  8
RA_6120
 62
    11
 10
559701
 20
3257414
  0
VERTEX
  8
RA_6120
 62
    11
 10
559723
 20
3257423
  0
VERTEX
  8
RA_6120
 62
    11
 10
559737
 20
3257413
  0
VERTEX
  8
RA_6120
 62
    11
 10
559755
 20
3257406
  0
VERTEX
  8
RA_6120
 62
    11
 10
559770
 20
3257412
  0
VERTEX
  8
RA_6120
 62
    11
 10
559786
 20
3257412
  0
VERTEX
  8
RA_6120
 62
    11
 10
559845
 20
3257431
  0
VERTEX
  8
RA_6120
 62
    11
 10
559862
 20
3257441
  0
VERTEX
  8
RA_6120
 62
    11
 10
559877
 20
3257447
  0
VERTEX
  8
RA_6120
 62
    11
 10
559915
 20
3257461
  0
VERTEX
  8
RA_6120
 62
    11
 10
559935
 20
3257461
  0
VERTEX
  8
RA_6120
 62
    11
 10
559958
 20
3257465
  0
VERTEX
  8
RA_6120
 62
    11
 10
559974
 20
3257470
  0
VERTEX
  8
RA_6120
 62
    11
 10
559984
 20
3257482
  0
VERTEX
  8
RA_6120
 62
    11
 10
559979
 20
3257497
  0
VERTEX
  8
RA_6120
 62
    11
 10
559975
 20
3257510
  0
VERTEX
  8
RA_6120
 62
    11
 10
559980
 20
3257524
  0
VERTEX
  8
RA_6120
 62
    11
 10
559993
 20
3257522
  0
VERTEX
  8
RA_6120
 62
    11
 10
560018
 20
3257512
  0
VERTEX
  8
RA_6120
 62
    11
 10
560037
 20
3257511
  0
VERTEX
  8
RA_6120
 62
    11
 10
560086
 20
3257510
  0
VERTEX
  8
RA_6120
 62
    11
 10
560109
 20
3257509
  0
VERTEX
  8
RA_6120
 62
    11
 10
560169
 20
3257506
  0
VERTEX
  8
RA_6120
 62
    11
 10
560178
 20
3257501
  0
VERTEX
  8
RA_6120
 62
    11
 10
560191
 20
3257489
  0
VERTEX
  8
RA_6120
 62
    11
 10
560210
 20
3257466
  0
VERTEX
  8
RA_6120
 62
    11
 10
560224
 20
3257461
  0
VERTEX
  8
RA_6120
 62
    11
 10
560246
 20
3257456
  0
VERTEX
  8
RA_6120
 62
    11
 10
560279
 20
3257454
  0
VERTEX
  8
RA_6120
 62
    11
 10
560305
 20
3257457
  0
VERTEX
  8
RA_6120
 62
    11
 10
560320
 20
3257476
  0
VERTEX
  8
RA_6120
 62
    11
 10
560331
 20
3257506
  0
VERTEX
  8
RA_6120
 62
    11
 10
560335
 20
3257532
  0
VERTEX
  8
RA_6120
 62
    11
 10
560344
 20
3257560
  0
VERTEX
  8
RA_6120
 62
    11
 10
560346
 20
3257592
  0
VERTEX
  8
RA_6120
 62
    11
 10
560350
 20
3257648
  0
VERTEX
  8
RA_6120
 62
    11
 10
560367
 20
3257714
  0
VERTEX
  8
RA_6120
 62
    11
 10
560365
 20
3257753
  0
VERTEX
  8
RA_6120
 62
    11
 10
560354
 20
3257780
  0
VERTEX
  8
RA_6120
 62
    11
 10
560345
 20
3257805
  0
VERTEX
  8
RA_6120
 62
    11
 10
560353
 20
3257825
  0
VERTEX
  8
RA_6120
 62
    11
 10
560374
 20
3257834
  0
VERTEX
  8
RA_6120
 62
    11
 10
560396
 20
3257841
  0
VERTEX
  8
RA_6120
 62
    11
 10
560416
 20
3257856
  0
VERTEX
  8
RA_6120
 62
    11
 10
560434
 20
3257894
  0
VERTEX
  8
RA_6120
 62
    11
 10
560440
 20
3257925
  0
VERTEX
  8
RA_6120
 62
    11
 10
560449
 20
3257942
  0
VERTEX
  8
RA_6120
 62
    11
 10
560474
 20
3257952
  0
VERTEX
  8
RA_6120
 62
    11
 10
560504
 20
3257956
  0
VERTEX
  8
RA_6120
 62
    11
 10
560526
 20
3257959
  0
VERTEX
  8
RA_6120
 62
    11
 10
560552
 20
3257961
  0
VERTEX
  8
RA_6120
 62
    11
 10
560631
 20
3257978
  0
VERTEX
  8
RA_6120
 62
    11
 10
560651
 20
3257962
  0
VERTEX
  8
RA_6120
 62
    11
 10
560689
 20
3257860
  0
VERTEX
  8
RA_6120
 62
    11
 10
560716
 20
3257783
  0
VERTEX
  8
RA_6120
 62
    11
 10
560718
 20
3257756
  0
VERTEX
  8
RA_6120
 62
    11
 10
560714
 20
3257748
  0
VERTEX
  8
RA_6120
 62
    11
 10
560689
 20
3257711
  0
VERTEX
  8
RA_6120
 62
    11
 10
560676
 20
3257691
  0
VERTEX
  8
RA_6120
 62
    11
 10
560670
 20
3257651
  0
VERTEX
  8
RA_6120
 62
    11
 10
560661
 20
3257625
  0
VERTEX
  8
RA_6120
 62
    11
 10
560645
 20
3257628
  0
VERTEX
  8
RA_6120
 62
    11
 10
560640
 20
3257641
  0
VERTEX
  8
RA_6120
 62
    11
 10
560634
 20
3257666
  0
VERTEX
  8
RA_6120
 62
    11
 10
560622
 20
3257666
  0
VERTEX
  8
RA_6120
 62
    11
 10
560545
 20
3257634
  0
VERTEX
  8
RA_6120
 62
    11
 10
560515
 20
3257616
  0
VERTEX
  8
RA_6120
 62
    11
 10
560499
 20
3257597
  0
VERTEX
  8
RA_6120
 62
    11
 10
560488
 20
3257534
  0
VERTEX
  8
RA_6120
 62
    11
 10
560489
 20
3257515
  0
VERTEX
  8
RA_6120
 62
    11
 10
560503
 20
3257513
  0
VERTEX
  8
RA_6120
 62
    11
 10
560566
 20
3257508
  0
VERTEX
  8
RA_6120
 62
    11
 10
560600
 20
3257502
  0
VERTEX
  8
RA_6120
 62
    11
 10
560627
 20
3257485
  0
VERTEX
  8
RA_6120
 62
    11
 10
560665
 20
3257479
  0
VERTEX
  8
RA_6120
 62
    11
 10
560688
 20
3257479
  0
VERTEX
  8
RA_6120
 62
    11
 10
560708
 20
3257470
  0
VERTEX
  8
RA_6120
 62
    11
 10
560730
 20
3257459
  0
VERTEX
  8
RA_6120
 62
    11
 10
560746
 20
3257468
  0
VERTEX
  8
RA_6120
 62
    11
 10
560766
 20
3257486
  0
VERTEX
  8
RA_6120
 62
    11
 10
560795
 20
3257508
  0
VERTEX
  8
RA_6120
 62
    11
 10
560814
 20
3257512
  0
VERTEX
  8
RA_6120
 62
    11
 10
560832
 20
3257520
  0
VERTEX
  8
RA_6120
 62
    11
 10
560844
 20
3257529
  0
VERTEX
  8
RA_6120
 62
    11
 10
560860
 20
3257550
  0
VERTEX
  8
RA_6120
 62
    11
 10
560877
 20
3257561
  0
VERTEX
  8
RA_6120
 62
    11
 10
560901
 20
3257571
  0
VERTEX
  8
RA_6120
 62
    11
 10
560923
 20
3257577
  0
VERTEX
  8
RA_6120
 62
    11
 10
560935
 20
3257569
  0
VERTEX
  8
RA_6120
 62
    11
 10
560947
 20
3257550
  0
VERTEX
  8
RA_6120
 62
    11
 10
560947
 20
3257518
  0
VERTEX
  8
RA_6120
 62
    11
 10
560940
 20
3257493
  0
VERTEX
  8
RA_6120
 62
    11
 10
560928
 20
3257471
  0
VERTEX
  8
RA_6120
 62
    11
 10
560929
 20
3257454
  0
VERTEX
  8
RA_6120
 62
    11
 10
560935
 20
3257456
  0
VERTEX
  8
RA_6120
 62
    11
 10
560959
 20
3257488
  0
VERTEX
  8
RA_6120
 62
    11
 10
560971
 20
3257510
  0
VERTEX
  8
RA_6120
 62
    11
 10
560982
 20
3257534
  0
VERTEX
  8
RA_6120
 62
    11
 10
560988
 20
3257559
  0
VERTEX
  8
RA_6120
 62
    11
 10
560999
 20
3257577
  0
VERTEX
  8
RA_6120
 62
    11
 10
561024
 20
3257606
  0
VERTEX
  8
RA_6120
 62
    11
 10
561046
 20
3257623
  0
VERTEX
  8
RA_6120
 62
    11
 10
561060
 20
3257635
  0
VERTEX
  8
RA_6120
 62
    11
 10
561067
 20
3257648
  0
VERTEX
  8
RA_6120
 62
    11
 10
561061
 20
3257663
  0
VERTEX
  8
RA_6120
 62
    11
 10
561042
 20
3257683
  0
VERTEX
  8
RA_6120
 62
    11
 10
561026
 20
3257706
  0
VERTEX
  8
RA_6120
 62
    11
 10
561026
 20
3257743
  0
VERTEX
  8
RA_6120
 62
    11
 10
561018
 20
3257774
  0
VERTEX
  8
RA_6120
 62
    11
 10
560999
 20
3257817
  0
VERTEX
  8
RA_6120
 62
    11
 10
560979
 20
3257844
  0
VERTEX
  8
RA_6120
 62
    11
 10
560955
 20
3257865
  0
VERTEX
  8
RA_6120
 62
    11
 10
560940
 20
3257880
  0
VERTEX
  8
RA_6120
 62
    11
 10
560939
 20
3257894
  0
VERTEX
  8
RA_6120
 62
    11
 10
560954
 20
3257899
  0
VERTEX
  8
RA_6120
 62
    11
 10
560970
 20
3257894
  0
VERTEX
  8
RA_6120
 62
    11
 10
561006
 20
3257875
  0
VERTEX
  8
RA_6120
 62
    11
 10
561035
 20
3257860
  0
VERTEX
  8
RA_6120
 62
    11
 10
561059
 20
3257854
  0
VERTEX
  8
RA_6120
 62
    11
 10
561073
 20
3257868
  0
SEQEND
  0
POLYLINE
  8
RA_6120
  6
CONTINUOUS
 62
    11
 66
     1
  0
VERTEX
  8
RA_6120
 62
    11
 10
556459
 20
3255760
  0
VERTEX
  8
RA_6120
 62
    11
 10
556498
 20
3255799
  0
VERTEX
  8
RA_6120
 62
    11
 10
556550
 20
3255845
  0
VERTEX
  8
RA_6120
 62
    11
 10
556578
 20
3255857
  0
SEQEND
  0
POLYLINE
  8
RA_6120
  6
CONTINUOUS
 62
    11
 66
     1
  0
VERTEX
  8
RA_6120
 62
    11
 10
556459
 20
3255760
  0
VERTEX
  8
RA_6120
 62
    11
 10
556442
 20
3255766
  0
VERTEX
  8
RA_6120
 62
    11
 10
556444
 20
3255792
  0
VERTEX
  8
RA_6120
 62
    11
 10
556438
 20
3255823
  0
VERTEX
  8
RA_6120
 62
    11
 10
556424
 20
3255855
  0
VERTEX
  8
RA_6120
 62
    11
 10
556398
 20
3255871
  0
VERTEX
  8
RA_6120
 62
    11
 10
556373
 20
3255878
  0
VERTEX
  8
RA_6120
 62
    11
 10
556351
 20
3255879
  0
VERTEX
  8
RA_6120
 62
    11
 10
556337
 20
3255860
  0
VERTEX
  8
RA_6120
 62
    11
 10
556343
 20
3255839
  0
VERTEX
  8
RA_6120
 62
    11
 10
556355
 20
3255807
  0
VERTEX
  8
RA_6120
 62
    11
 10
556362
 20
3255776
  0
VERTEX
  8
RA_6120
 62
    11
 10
556342
 20
3255760
  0
VERTEX
  8
RA_6120
 62
    11
 10
556313
 20
3255750
  0
VERTEX
  8
RA_6120
 62
    11
 10
556272
 20
3255733
  0
VERTEX
  8
RA_6120
 62
    11
 10
556225
 20
3255727
  0
VERTEX
  8
RA_6120
 62
    11
 10
556188
 20
3255719
  0
VERTEX
  8
RA_6120
 62
    11
 10
556141
 20
3255701
  0
VERTEX
  8
RA_6120
 62
    11
 10
556103
 20
3255692
  0
VERTEX
  8
RA_6120
 62
    11
 10
556054
 20
3255687
  0
VERTEX
  8
RA_6120
 62
    11
 10
556009
 20
3255696
  0
VERTEX
  8
RA_6120
 62
    11
 10
555990
 20
3255717
  0
VERTEX
  8
RA_6120
 62
    11
 10
555979
 20
3255740
  0
VERTEX
  8
RA_6120
 62
    11
 10
555952
 20
3255791
  0
VERTEX
  8
RA_6120
 62
    11
 10
555907
 20
3255801
  0
VERTEX
  8
RA_6120
 62
    11
 10
555855
 20
3255784
  0
VERTEX
  8
RA_6120
 62
    11
 10
555830
 20
3255754
  0
VERTEX
  8
RA_6120
 62
    11
 10
555809
 20
3255713
  0
VERTEX
  8
RA_6120
 62
    11
 10
555775
 20
3255680
  0
VERTEX
  8
RA_6120
 62
    11
 10
555757
 20
3255670
  0
VERTEX
  8
RA_6120
 62
    11
 10
555720
 20
3255654
  0
SEQEND
  0
POLYLINE
  8
RA_6120
  6
CONTINUOUS
 62
    11
 66
     1
  0
VERTEX
  8
RA_6120
 62
    11
 10
555720
 20
3255654
  0
VERTEX
  8
RA_6120
 62
    11
 10
555717
 20
3255667
  0
VERTEX
  8
RA_6120
 62
    11
 10
555714
 20
3255706
  0
VERTEX
  8
RA_6120
 62
    11
 10
555721
 20
3255756
  0
SEQEND
  0
POLYLINE
  8
RA_6120
  6
CONTINUOUS
 62
    11
 66
     1
  0
VERTEX
  8
RA_6120
 62
    11
 10
555721
 20
3255756
  0
VERTEX
  8
RA_6120
 62
    11
 10
555744
 20
3255768
  0
VERTEX
  8
RA_6120
 62
    11
 10
555776
 20
3255782
  0
VERTEX
  8
RA_6120
 62
    11
 10
555778
 20
3255784
  0
VERTEX
  8
RA_6120
 62
    11
 10
555830
 20
3255800
  0
VERTEX
  8
RA_6120
 62
    11
 10
555848
 20
3255816
  0
VERTEX
  8
RA_6120
 62
    11
 10
555847
 20
3255835
  0
VERTEX
  8
RA_6120
 62
    11
 10
555831
 20
3255852
  0
VERTEX
  8
RA_6120
 62
    11
 10
555787
 20
3255854
  0
VERTEX
  8
RA_6120
 62
    11
 10
555753
 20
3255839
  0
VERTEX
  8
RA_6120
 62
    11
 10
555748
 20
3255839
  0
VERTEX
  8
RA_6120
 62
    11
 10
555720
 20
3255841
  0
SEQEND
  0
POLYLINE
  8
RA_6120
  6
CONTINUOUS
 62
    11
 66
     1
  0
VERTEX
  8
RA_6120
 62
    11
 10
555652
 20
3255986
  0
VERTEX
  8
RA_6120
 62
    11
 10
555693
 20
3255928
  0
VERTEX
  8
RA_6120
 62
    11
 10
555720
 20
3255841
  0
SEQEND
  0
POLYLINE
  8
RA_6120
  6
CONTINUOUS
 62
    11
 66
     1
  0
VERTEX
  8
RA_6120
 62
    11
 10
555652
 20
3255986
  0
VERTEX
  8
RA_6120
 62
    11
 10
555658
 20
3256011
  0
VERTEX
  8
RA_6120
 62
    11
 10
555710
 20
3256059
  0
VERTEX
  8
RA_6120
 62
    11
 10
555748
 20
3256085
  0
VERTEX
  8
RA_6120
 62
    11
 10
555807
 20
3256119
  0
VERTEX
  8
RA_6120
 62
    11
 10
555853
 20
3256157
  0
VERTEX
  8
RA_6120
 62
    11
 10
555877
 20
3256187
  0
VERTEX
  8
RA_6120
 62
    11
 10
555921
 20
3256256
  0
VERTEX
  8
RA_6120
 62
    11
 10
555999
 20
3256354
  0
VERTEX
  8
RA_6120
 62
    11
 10
556147
 20
3256484
  0
VERTEX
  8
RA_6120
 62
    11
 10
556194
 20
3256507
  0
VERTEX
  8
RA_6120
 62
    11
 10
556216
 20
3256501
  0
VERTEX
  8
RA_6120
 62
    11
 10
556232
 20
3256514
  0
VERTEX
  8
RA_6120
 62
    11
 10
556243
 20
3256532
  0
VERTEX
  8
RA_6120
 62
    11
 10
556245
 20
3256557
  0
VERTEX
  8
RA_6120
 62
    11
 10
556234
 20
3256634
  0
VERTEX
  8
RA_6120
 62
    11
 10
556260
 20
3256651
  0
VERTEX
  8
RA_6120
 62
    11
 10
556352
 20
3256701
  0
VERTEX
  8
RA_6120
 62
    11
 10
556394
 20
3256721
  0
VERTEX
  8
RA_6120
 62
    11
 10
556424
 20
3256735
  0
SEQEND
  0
POLYLINE
  8
RA_6120
  6
CONTINUOUS
 62
    11
 66
     1
  0
VERTEX
  8
RA_6120
 62
    11
 10
556378
 20
3256745
  0
VERTEX
  8
RA_6120
 62
    11
 10
556401
 20
3256739
  0
VERTEX
  8
RA_6120
 62
    11
 10
556424
 20
3256735
  0
SEQEND
  0
POLYLINE
  8
RA_6120
  6
CONTINUOUS
 62
    11
 66
     1
  0
VERTEX
  8
RA_6120
 62
    11
 10
556378
 20
3256745
  0
VERTEX
  8
RA_6120
 62
    11
 10
556384
 20
3256772
  0
VERTEX
  8
RA_6120
 62
    11
 10
556398
 20
3256794
  0
VERTEX
  8
RA_6120
 62
    11
 10
556423
 20
3256809
  0
VERTEX
  8
RA_6120
 62
    11
 10
556482
 20
3256826
  0
VERTEX
  8
RA_6120
 62
    11
 10
556529
 20
3256844
  0
VERTEX
  8
RA_6120
 62
    11
 10
556556
 20
3256860
  0
VERTEX
  8
RA_6120
 62
    11
 10
556571
 20
3256875
  0
VERTEX
  8
RA_6120
 62
    11
 10
556589
 20
3256958
  0
SEQEND
  0
POLYLINE
  8
RA_6120
  6
CONTINUOUS
 62
    11
 66
     1
  0
VERTEX
  8
RA_6120
 62
    11
 10
559432
 20
3255002
  0
VERTEX
  8
RA_6120
 62
    11
 10
559448
 20
3254967
  0
VERTEX
  8
RA_6120
 62
    11
 10
559455
 20
3254944
  0
VERTEX
  8
RA_6120
 62
    11
 10
559466
 20
3254929
  0
VERTEX
  8
RA_6120
 62
    11
 10
559493
 20
3254929
  0
VERTEX
  8
RA_6120
 62
    11
 10
559511
 20
3254940
  0
VERTEX
  8
RA_6120
 62
    11
 10
559503
 20
3254959
  0
VERTEX
  8
RA_6120
 62
    11
 10
559520
 20
3254977
  0
VERTEX
  8
RA_6120
 62
    11
 10
559549
 20
3254983
  0
VERTEX
  8
RA_6120
 62
    11
 10
559566
 20
3254994
  0
VERTEX
  8
RA_6120
 62
    11
 10
559569
 20
3255011
  0
VERTEX
  8
RA_6120
 62
    11
 10
559558
 20
3255041
  0
VERTEX
  8
RA_6120
 62
    11
 10
559576
 20
3255052
  0
VERTEX
  8
RA_6120
 62
    11
 10
559632
 20
3255095
  0
VERTEX
  8
RA_6120
 62
    11
 10
559678
 20
3255119
  0
VERTEX
  8
RA_6120
 62
    11
 10
559706
 20
3255127
  0
VERTEX
  8
RA_6120
 62
    11
 10
559740
 20
3255131
  0
VERTEX
  8
RA_6120
 62
    11
 10
559769
 20
3255131
  0
VERTEX
  8
RA_6120
 62
    11
 10
559805
 20
3255129
  0
VERTEX
  8
RA_6120
 62
    11
 10
559854
 20
3255144
  0
VERTEX
  8
RA_6120
 62
    11
 10
559888
 20
3255156
  0
VERTEX
  8
RA_6120
 62
    11
 10
559916
 20
3255163
  0
VERTEX
  8
RA_6120
 62
    11
 10
559943
 20
3255171
  0
VERTEX
  8
RA_6120
 62
    11
 10
559951
 20
3255184
  0
VERTEX
  8
RA_6120
 62
    11
 10
559954
 20
3255206
  0
VERTEX
  8
RA_6120
 62
    11
 10
559965
 20
3255225
  0
VERTEX
  8
RA_6120
 62
    11
 10
560013
 20
3255240
  0
VERTEX
  8
RA_6120
 62
    11
 10
560019
 20
3255251
  0
VERTEX
  8
RA_6120
 62
    11
 10
560010
 20
3255276
  0
VERTEX
  8
RA_6120
 62
    11
 10
559995
 20
3255319
  0
VERTEX
  8
RA_6120
 62
    11
 10
560008
 20
3255330
  0
VERTEX
  8
RA_6120
 62
    11
 10
560052
 20
3255345
  0
VERTEX
  8
RA_6120
 62
    11
 10
560232
 20
3255406
  0
SEQEND
  0
POLYLINE
  8
RA_6120
  6
CONTINUOUS
 62
    11
 66
     1
  0
VERTEX
  8
RA_6120
 62
    11
 10
553577.19
 20
3251092.6
  0
VERTEX
  8
RA_6120
 62
    11
 10
553579.25
 20
3251095.75
  0
VERTEX
  8
RA_6120
 62
    11
 10
553621.25
 20
3251124.25
  0
VERTEX
  8
RA_6120
 62
    11
 10
553673
 20
3251160
  0
SEQEND
  0
POLYLINE
  8
RA_6120
  6
CONTINUOUS
 62
    11
 66
     1
  0
VERTEX
  8
RA_6120
 62
    11
 10
553709
 20
3250995
  0
VERTEX
  8
RA_6120
 62
    11
 10
553590
 20
3251083
  0
VERTEX
  8
RA_6120
 62
    11
 10
553577.19
 20
3251092.6
  0
SEQEND
  0
POLYLINE
  8
RA_6120
  6
CONTINUOUS
 62
    11
 66
     1
  0
VERTEX
  8
RA_6120
 62
    11
 10
552291
 20
3249897
  0
VERTEX
  8
RA_6120
 62
    11
 10
552297
 20
3249868
  0
VERTEX
  8
RA_6120
 62
    11
 10
552307
 20
3249846
  0
VERTEX
  8
RA_6120
 62
    11
 10
552321
 20
3249819
  0
VERTEX
  8
RA_6120
 62
    11
 10
552361
 20
3249778
  0
VERTEX
  8
RA_6120
 62
    11
 10
552387
 20
3249756
  0
VERTEX
  8
RA_6120
 62
    11
 10
552413
 20
3249739
  0
VERTEX
  8
RA_6120
 62
    11
 10
552450
 20
3249734
  0
VERTEX
  8
RA_6120
 62
    11
 10
552490
 20
3249767
  0
VERTEX
  8
RA_6120
 62
    11
 10
552543
 20
3249813
  0
VERTEX
  8
RA_6120
 62
    11
 10
552624
 20
3249885
  0
VERTEX
  8
RA_6120
 62
    11
 10
552642
 20
3249898
  0
VERTEX
  8
RA_6120
 62
    11
 10
552653
 20
3249913
  0
VERTEX
  8
RA_6120
 62
    11
 10
552645
 20
3249928
  0
VERTEX
  8
RA_6120
 62
    11
 10
552631
 20
3249943
  0
VERTEX
  8
RA_6120
 62
    11
 10
552628
 20
3249959
  0
VERTEX
  8
RA_6120
 62
    11
 10
552647
 20
3249976
  0
VERTEX
  8
RA_6120
 62
    11
 10
552661
 20
3249995
  0
VERTEX
  8
RA_6120
 62
    11
 10
552650
 20
3250010
  0
VERTEX
  8
RA_6120
 62
    11
 10
552624
 20
3250052
  0
VERTEX
  8
RA_6120
 62
    11
 10
552602
 20
3250068
  0
VERTEX
  8
RA_6120
 62
    11
 10
552588
 20
3250073
  0
VERTEX
  8
RA_6120
 62
    11
 10
552567
 20
3250068
  0
VERTEX
  8
RA_6120
 62
    11
 10
552555
 20
3250081
  0
VERTEX
  8
RA_6120
 62
    11
 10
552539
 20
3250102
  0
VERTEX
  8
RA_6120
 62
    11
 10
552539
 20
3250120
  0
VERTEX
  8
RA_6120
 62
    11
 10
552573
 20
3250134
  0
VERTEX
  8
RA_6120
 62
    11
 10
552591
 20
3250145
  0
VERTEX
  8
RA_6120
 62
    11
 10
552603
 20
3250166
  0
VERTEX
  8
RA_6120
 62
    11
 10
552601
 20
3250181
  0
VERTEX
  8
RA_6120
 62
    11
 10
552586
 20
3250199
  0
VERTEX
  8
RA_6120
 62
    11
 10
552575
 20
3250215
  0
VERTEX
  8
RA_6120
 62
    11
 10
552584
 20
3250226
  0
VERTEX
  8
RA_6120
 62
    11
 10
552600
 20
3250233
  0
VERTEX
  8
RA_6120
 62
    11
 10
552624
 20
3250235
  0
VERTEX
  8
RA_6120
 62
    11
 10
552644
 20
3250221
  0
VERTEX
  8
RA_6120
 62
    11
 10
552665
 20
3250215
  0
VERTEX
  8
RA_6120
 62
    11
 10
552693
 20
3250224
  0
VERTEX
  8
RA_6120
 62
    11
 10
552710
 20
3250241
  0
VERTEX
  8
RA_6120
 62
    11
 10
552730
 20
3250267
  0
VERTEX
  8
RA_6120
 62
    11
 10
552775
 20
3250325
  0
VERTEX
  8
RA_6120
 62
    11
 10
552797
 20
3250353
  0
VERTEX
  8
RA_6120
 62
    11
 10
552830
 20
3250390
  0
VERTEX
  8
RA_6120
 62
    11
 10
552893
 20
3250463
  0
VERTEX
  8
RA_6120
 62
    11
 10
552906
 20
3250496
  0
VERTEX
  8
RA_6120
 62
    11
 10
552921
 20
3250530
  0
VERTEX
  8
RA_6120
 62
    11
 10
552936
 20
3250552
  0
VERTEX
  8
RA_6120
 62
    11
 10
552974
 20
3250611
  0
VERTEX
  8
RA_6120
 62
    11
 10
552983
 20
3250628
  0
VERTEX
  8
RA_6120
 62
    11
 10
552990
 20
3250644
  0
VERTEX
  8
RA_6120
 62
    11
 10
552968
 20
3250677
  0
VERTEX
  8
RA_6120
 62
    11
 10
552985
 20
3250722
  0
VERTEX
  8
RA_6120
 62
    11
 10
553019
 20
3250795
  0
VERTEX
  8
RA_6120
 62
    11
 10
553057
 20
3250886
  0
VERTEX
  8
RA_6120
 62
    11
 10
553072
 20
3250912
  0
VERTEX
  8
RA_6120
 62
    11
 10
553098
 20
3250952
  0
VERTEX
  8
RA_6120
 62
    11
 10
553112
 20
3250977
  0
VERTEX
  8
RA_6120
 62
    11
 10
553133
 20
3250982
  0
VERTEX
  8
RA_6120
 62
    11
 10
553153
 20
3250967
  0
VERTEX
  8
RA_6120
 62
    11
 10
553173
 20
3250949
  0
VERTEX
  8
RA_6120
 62
    11
 10
553209
 20
3250937
  0
VERTEX
  8
RA_6120
 62
    11
 10
553235
 20
3250930
  0
VERTEX
  8
RA_6120
 62
    11
 10
553281
 20
3250908
  0
VERTEX
  8
RA_6120
 62
    11
 10
553310
 20
3250900
  0
VERTEX
  8
RA_6120
 62
    11
 10
553329
 20
3250894
  0
VERTEX
  8
RA_6120
 62
    11
 10
553404
 20
3250892
  0
VERTEX
  8
RA_6120
 62
    11
 10
553434
 20
3250891
  0
VERTEX
  8
RA_6120
 62
    11
 10
553450
 20
3250903
  0
VERTEX
  8
RA_6120
 62
    11
 10
553457
 20
3250918
  0
VERTEX
  8
RA_6120
 62
    11
 10
553465
 20
3250932
  0
VERTEX
  8
RA_6120
 62
    11
 10
553484
 20
3250939
  0
VERTEX
  8
RA_6120
 62
    11
 10
553498.36
 20
3250936.15
  0
SEQEND
  0
POLYLINE
  8
RA_6120
  6
CONTINUOUS
 62
    11
 66
     1
  0
VERTEX
  8
RA_6120
 62
    11
 10
553514.33
 20
3250981.42
  0
VERTEX
  8
RA_6120
 62
    11
 10
553509
 20
3251026
  0
VERTEX
  8
RA_6120
 62
    11
 10
553510
 20
3251042
  0
VERTEX
  8
RA_6120
 62
    11
 10
553522
 20
3251061
  0
VERTEX
  8
RA_6120
 62
    11
 10
553539
 20
3251087
  0
VERTEX
  8
RA_6120
 62
    11
 10
553554
 20
3251110
  0
VERTEX
  8
RA_6120
 62
    11
 10
553566
 20
3251122
  0
VERTEX
  8
RA_6120
 62
    11
 10
553587
 20
3251138
  0
VERTEX
  8
RA_6120
 62
    11
 10
553617
 20
3251165
  0
VERTEX
  8
RA_6120
 62
    11
 10
553619
 20
3251172
  0
VERTEX
  8
RA_6120
 62
    11
 10
553569
 20
3251210
  0
VERTEX
  8
RA_6120
 62
    11
 10
553540
 20
3251230
  0
VERTEX
  8
RA_6120
 62
    11
 10
553523
 20
3251238
  0
VERTEX
  8
RA_6120
 62
    11
 10
553466
 20
3251237
  0
VERTEX
  8
RA_6120
 62
    11
 10
553447
 20
3251232
  0
VERTEX
  8
RA_6120
 62
    11
 10
553435
 20
3251237
  0
VERTEX
  8
RA_6120
 62
    11
 10
553403
 20
3251284
  0
VERTEX
  8
RA_6120
 62
    11
 10
553395
 20
3251300
  0
VERTEX
  8
RA_6120
 62
    11
 10
553396
 20
3251316
  0
VERTEX
  8
RA_6120
 62
    11
 10
553393
 20
3251333
  0
VERTEX
  8
RA_6120
 62
    11
 10
553393
 20
3251342
  0
VERTEX
  8
RA_6120
 62
    11
 10
553399
 20
3251356
  0
VERTEX
  8
RA_6120
 62
    11
 10
553408
 20
3251378
  0
VERTEX
  8
RA_6120
 62
    11
 10
553419
 20
3251393
  0
VERTEX
  8
RA_6120
 62
    11
 10
553431
 20
3251407
  0
VERTEX
  8
RA_6120
 62
    11
 10
553429
 20
3251423
  0
VERTEX
  8
RA_6120
 62
    11
 10
553425
 20
3251434
  0
VERTEX
  8
RA_6120
 62
    11
 10
553431
 20
3251445
  0
VERTEX
  8
RA_6120
 62
    11
 10
553443
 20
3251457
  0
VERTEX
  8
RA_6120
 62
    11
 10
553458
 20
3251471
  0
VERTEX
  8
RA_6120
 62
    11
 10
553470
 20
3251484
  0
VERTEX
  8
RA_6120
 62
    11
 10
553484
 20
3251485
  0
VERTEX
  8
RA_6120
 62
    11
 10
553497
 20
3251478
  0
VERTEX
  8
RA_6120
 62
    11
 10
553507
 20
3251480
  0
VERTEX
  8
RA_6120
 62
    11
 10
553523
 20
3251488
  0
VERTEX
  8
RA_6120
 62
    11
 10
553549
 20
3251518
  0
VERTEX
  8
RA_6120
 62
    11
 10
553583
 20
3251557
  0
VERTEX
  8
RA_6120
 62
    11
 10
553597
 20
3251579
  0
VERTEX
  8
RA_6120
 62
    11
 10
553606
 20
3251587
  0
VERTEX
  8
RA_6120
 62
    11
 10
553643
 20
3251601
  0
VERTEX
  8
RA_6120
 62
    11
 10
553655
 20
3251584
  0
SEQEND
  0
POLYLINE
  8
RA_6120
  6
CONTINUOUS
 62
    11
 66
     1
  0
VERTEX
  8
RA_6120
 62
    11
 10
553498.36
 20
3250936.15
  0
VERTEX
  8
RA_6120
 62
    11
 10
553507.25
 20
3250966.75
  0
VERTEX
  8
RA_6120
 62
    11
 10
553514.33
 20
3250981.42
  0
SEQEND
  0
POLYLINE
  8
RA_6120
  6
CONTINUOUS
 62
    11
 66
     1
  0
VERTEX
  8
RA_6120
 62
    11
 10
533363
 20
3237198
  0
VERTEX
  8
RA_6120
 62
    11
 10
533351
 20
3237173
  0
VERTEX
  8
RA_6120
 62
    11
 10
533335
 20
3237151
  0
VERTEX
  8
RA_6120
 62
    11
 10
533313.0001
 20
3237118
  0
VERTEX
  8
RA_6120
 62
    11
 10
533318.0001
 20
3237090
  0
VERTEX
  8
RA_6120
 62
    11
 10
533330
 20
3237064
  0
VERTEX
  8
RA_6120
 62
    11
 10
533325.0001
 20
3237041
  0
VERTEX
  8
RA_6120
 62
    11
 10
533355
 20
3237004
  0
VERTEX
  8
RA_6120
 62
    11
 10
533464
 20
3236838
  0
VERTEX
  8
RA_6120
 62
    11
 10
533479
 20
3236821
  0
VERTEX
  8
RA_6120
 62
    11
 10
533498
 20
3236819
  0
VERTEX
  8
RA_6120
 62
    11
 10
533546
 20
3236838
  0
VERTEX
  8
RA_6120
 62
    11
 10
533565
 20
3236849
  0
VERTEX
  8
RA_6120
 62
    11
 10
533582
 20
3236858
  0
VERTEX
  8
RA_6120
 62
    11
 10
533598
 20
3236859
  0
VERTEX
  8
RA_6120
 62
    11
 10
533614
 20
3236875
  0
VERTEX
  8
RA_6120
 62
    11
 10
533645
 20
3236901
  0
VERTEX
  8
RA_6120
 62
    11
 10
533659
 20
3236931
  0
VERTEX
  8
RA_6120
 62
    11
 10
533665
 20
3236958
  0
VERTEX
  8
RA_6120
 62
    11
 10
533659
 20
3236990
  0
VERTEX
  8
RA_6120
 62
    11
 10
533665
 20
3237010
  0
VERTEX
  8
RA_6120
 62
    11
 10
533683
 20
3237021
  0
VERTEX
  8
RA_6120
 62
    11
 10
533703
 20
3237037
  0
VERTEX
  8
RA_6120
 62
    11
 10
533729
 20
3237056
  0
VERTEX
  8
RA_6120
 62
    11
 10
533744
 20
3237072
  0
VERTEX
  8
RA_6120
 62
    11
 10
533731
 20
3237105
  0
VERTEX
  8
RA_6120
 62
    11
 10
533729
 20
3237123
  0
VERTEX
  8
RA_6120
 62
    11
 10
533750
 20
3237141
  0
VERTEX
  8
RA_6120
 62
    11
 10
533799
 20
3237182
  0
VERTEX
  8
RA_6120
 62
    11
 10
533836
 20
3237214
  0
VERTEX
  8
RA_6120
 62
    11
 10
533870
 20
3237239
  0
VERTEX
  8
RA_6120
 62
    11
 10
533891
 20
3237261
  0
VERTEX
  8
RA_6120
 62
    11
 10
533897
 20
3237274
  0
VERTEX
  8
RA_6120
 62
    11
 10
533892
 20
3237294
  0
VERTEX
  8
RA_6120
 62
    11
 10
533868
 20
3237326
  0
VERTEX
  8
RA_6120
 62
    11
 10
533854
 20
3237364
  0
VERTEX
  8
RA_6120
 62
    11
 10
533860
 20
3237401
  0
VERTEX
  8
RA_6120
 62
    11
 10
533918
 20
3237437
  0
VERTEX
  8
RA_6120
 62
    11
 10
533932
 20
3237451
  0
VERTEX
  8
RA_6120
 62
    11
 10
533940
 20
3237481
  0
VERTEX
  8
RA_6120
 62
    11
 10
533988
 20
3237510
  0
VERTEX
  8
RA_6120
 62
    11
 10
534013
 20
3237525
  0
VERTEX
  8
RA_6120
 62
    11
 10
534033
 20
3237533
  0
VERTEX
  8
RA_6120
 62
    11
 10
534048
 20
3237522
  0
VERTEX
  8
RA_6120
 62
    11
 10
534089
 20
3237456
  0
VERTEX
  8
RA_6120
 62
    11
 10
534097
 20
3237431
  0
VERTEX
  8
RA_6120
 62
    11
 10
534078
 20
3237411
  0
VERTEX
  8
RA_6120
 62
    11
 10
534054
 20
3237392
  0
VERTEX
  8
RA_6120
 62
    11
 10
534013
 20
3237361
  0
VERTEX
  8
RA_6120
 62
    11
 10
533967
 20
3237316
  0
VERTEX
  8
RA_6120
 62
    11
 10
533951
 20
3237296
  0
VERTEX
  8
RA_6120
 62
    11
 10
533931
 20
3237261
  0
VERTEX
  8
RA_6120
 62
    11
 10
533915
 20
3237235
  0
VERTEX
  8
RA_6120
 62
    11
 10
533909
 20
3237209
  0
VERTEX
  8
RA_6120
 62
    11
 10
533897
 20
3237181
  0
VERTEX
  8
RA_6120
 62
    11
 10
533863
 20
3237123
  0
VERTEX
  8
RA_6120
 62
    11
 10
533809
 20
3237058
  0
VERTEX
  8
RA_6120
 62
    11
 10
533760
 20
3236982
  0
VERTEX
  8
RA_6120
 62
    11
 10
533756
 20
3236955
  0
VERTEX
  8
RA_6120
 62
    11
 10
533734
 20
3236932
  0
VERTEX
  8
RA_6120
 62
    11
 10
533704
 20
3236917
  0
VERTEX
  8
RA_6120
 62
    11
 10
533651
 20
3236847
  0
VERTEX
  8
RA_6120
 62
    11
 10
533594
 20
3236767
  0
VERTEX
  8
RA_6120
 62
    11
 10
533543
 20
3236690.0001
  0
SEQEND
  0
POLYLINE
  8
RA_6120
  6
CONTINUOUS
 62
    11
 66
     1
  0
VERTEX
  8
RA_6120
 62
    11
 10
534140
 20
3237700
  0
VERTEX
  8
RA_6120
 62
    11
 10
534042
 20
3237632
  0
VERTEX
  8
RA_6120
 62
    11
 10
533837
 20
3237507
  0
VERTEX
  8
RA_6120
 62
    11
 10
533727
 20
3237436
  0
VERTEX
  8
RA_6120
 62
    11
 10
533511
 20
3237295
  0
VERTEX
  8
RA_6120
 62
    11
 10
533392
 20
3237221
  0
VERTEX
  8
RA_6120
 62
    11
 10
533363
 20
3237198
  0
SEQEND
  0
POLYLINE
  8
RA_6120
  6
CONTINUOUS
 62
    11
 66
     1
  0
VERTEX
  8
RA_6120
 62
    11
 10
534388
 20
3237901
  0
VERTEX
  8
RA_6120
 62
    11
 10
534408
 20
3237910
  0
VERTEX
  8
RA_6120
 62
    11
 10
534458
 20
3237921
  0
VERTEX
  8
RA_6120
 62
    11
 10
534472
 20
3237885
  0
VERTEX
  8
RA_6120
 62
    11
 10
534478
 20
3237857
  0
VERTEX
  8
RA_6120
 62
    11
 10
534469
 20
3237840
  0
VERTEX
  8
RA_6120
 62
    11
 10
534436
 20
3237832
  0
VERTEX
  8
RA_6120
 62
    11
 10
534402
 20
3237824
  0
VERTEX
  8
RA_6120
 62
    11
 10
534370
 20
3237807
  0
VERTEX
  8
RA_6120
 62
    11
 10
534351
 20
3237783
  0
VERTEX
  8
RA_6120
 62
    11
 10
534291
 20
3237742
  0
VERTEX
  8
RA_6120
 62
    11
 10
534235
 20
3237723
  0
VERTEX
  8
RA_6120
 62
    11
 10
534216
 20
3237709
  0
VERTEX
  8
RA_6120
 62
    11
 10
534226
 20
3237692
  0
VERTEX
  8
RA_6120
 62
    11
 10
534245
 20
3237682
  0
VERTEX
  8
RA_6120
 62
    11
 10
534270
 20
3237678
  0
VERTEX
  8
RA_6120
 62
    11
 10
534292
 20
3237682
  0
VERTEX
  8
RA_6120
 62
    11
 10
534321
 20
3237703
  0
VERTEX
  8
RA_6120
 62
    11
 10
534382
 20
3237729
  0
VERTEX
  8
RA_6120
 62
    11
 10
534438
 20
3237754
  0
VERTEX
  8
RA_6120
 62
    11
 10
534470
 20
3237771
  0
VERTEX
  8
RA_6120
 62
    11
 10
534513
 20
3237787
  0
VERTEX
  8
RA_6120
 62
    11
 10
534580
 20
3237805
  0
VERTEX
  8
RA_6120
 62
    11
 10
534669
 20
3237840
  0
VERTEX
  8
RA_6120
 62
    11
 10
534703
 20
3237852
  0
VERTEX
  8
RA_6120
 62
    11
 10
534717
 20
3237865
  0
VERTEX
  8
RA_6120
 62
    11
 10
534715
 20
3237893
  0
VERTEX
  8
RA_6120
 62
    11
 10
534695
 20
3237930
  0
VERTEX
  8
RA_6120
 62
    11
 10
534667
 20
3237968
  0
VERTEX
  8
RA_6120
 62
    11
 10
534650
 20
3238010
  0
VERTEX
  8
RA_6120
 62
    11
 10
534658
 20
3238033
  0
VERTEX
  8
RA_6120
 62
    11
 10
534678
 20
3238060
  0
VERTEX
  8
RA_6120
 62
    11
 10
534684
 20
3238094
  0
VERTEX
  8
RA_6120
 62
    11
 10
534678
 20
3238111
  0
VERTEX
  8
RA_6120
 62
    11
 10
534690
 20
3238124
  0
VERTEX
  8
RA_6120
 62
    11
 10
534712
 20
3238132
  0
VERTEX
  8
RA_6120
 62
    11
 10
534738
 20
3238140
  0
VERTEX
  8
RA_6120
 62
    11
 10
534760
 20
3238135
  0
VERTEX
  8
RA_6120
 62
    11
 10
534777
 20
3238111
  0
VERTEX
  8
RA_6120
 62
    11
 10
534785
 20
3238084
  0
VERTEX
  8
RA_6120
 62
    11
 10
534796
 20
3238052
  0
VERTEX
  8
RA_6120
 62
    11
 10
534807
 20
3238038
  0
SEQEND
  0
POLYLINE
  8
RA_6120
  6
CONTINUOUS
 62
    11
 66
     1
  0
VERTEX
  8
RA_6120
 62
    11
 10
534807
 20
3238038
  0
VERTEX
  8
RA_6120
 62
    11
 10
534839
 20
3238044
  0
VERTEX
  8
RA_6120
 62
    11
 10
534855
 20
3238055
  0
SEQEND
  0
POLYLINE
  8
RA_6120
  6
CONTINUOUS
 62
    11
 66
     1
  0
VERTEX
  8
RA_6120
 62
    11
 10
534855
 20
3238055
  0
VERTEX
  8
RA_6120
 62
    11
 10
534857
 20
3238072
  0
VERTEX
  8
RA_6120
 62
    11
 10
534846
 20
3238090
  0
VERTEX
  8
RA_6120
 62
    11
 10
534864
 20
3238098
  0
VERTEX
  8
RA_6120
 62
    11
 10
534882
 20
3238103
  0
VERTEX
  8
RA_6120
 62
    11
 10
534901
 20
3238096
  0
VERTEX
  8
RA_6120
 62
    11
 10
534904
 20
3238066
  0
VERTEX
  8
RA_6120
 62
    11
 10
534895
 20
3238038
  0
VERTEX
  8
RA_6120
 62
    11
 10
534901
 20
3237966
  0
VERTEX
  8
RA_6120
 62
    11
 10
534914
 20
3237952
  0
VERTEX
  8
RA_6120
 62
    11
 10
534942
 20
3237948
  0
VERTEX
  8
RA_6120
 62
    11
 10
534959
 20
3237933
  0
VERTEX
  8
RA_6120
 62
    11
 10
534948
 20
3237915
  0
VERTEX
  8
RA_6120
 62
    11
 10
534930
 20
3237911
  0
VERTEX
  8
RA_6120
 62
    11
 10
534908
 20
3237887
  0
VERTEX
  8
RA_6120
 62
    11
 10
534902
 20
3237842
  0
VERTEX
  8
RA_6120
 62
    11
 10
534914
 20
3237824
  0
VERTEX
  8
RA_6120
 62
    11
 10
534933
 20
3237809
  0
VERTEX
  8
RA_6120
 62
    11
 10
534949
 20
3237791
  0
VERTEX
  8
RA_6120
 62
    11
 10
534947
 20
3237765
  0
VERTEX
  8
RA_6120
 62
    11
 10
534925
 20
3237753
  0
VERTEX
  8
RA_6120
 62
    11
 10
534895
 20
3237750
  0
VERTEX
  8
RA_6120
 62
    11
 10
534853
 20
3237748
  0
VERTEX
  8
RA_6120
 62
    11
 10
534793
 20
3237736
  0
VERTEX
  8
RA_6120
 62
    11
 10
534758
 20
3237733
  0
VERTEX
  8
RA_6120
 62
    11
 10
534723
 20
3237728
  0
VERTEX
  8
RA_6120
 62
    11
 10
534670
 20
3237718
  0
VERTEX
  8
RA_6120
 62
    11
 10
534564
 20
3237685
  0
VERTEX
  8
RA_6120
 62
    11
 10
534479
 20
3237661
  0
VERTEX
  8
RA_6120
 62
    11
 10
534428
 20
3237648
  0
VERTEX
  8
RA_6120
 62
    11
 10
534321
 20
3237598
  0
VERTEX
  8
RA_6120
 62
    11
 10
534287
 20
3237586
  0
VERTEX
  8
RA_6120
 62
    11
 10
534263
 20
3237577
  0
VERTEX
  8
RA_6120
 62
    11
 10
534245
 20
3237583
  0
VERTEX
  8
RA_6120
 62
    11
 10
534244
 20
3237613
  0
VERTEX
  8
RA_6120
 62
    11
 10
534236
 20
3237635
  0
VERTEX
  8
RA_6120
 62
    11
 10
534221
 20
3237653
  0
VERTEX
  8
RA_6120
 62
    11
 10
534197
 20
3237669
  0
VERTEX
  8
RA_6120
 62
    11
 10
534170
 20
3237691
  0
VERTEX
  8
RA_6120
 62
    11
 10
534140
 20
3237700
  0
SEQEND
  0
POLYLINE
  8
RA_6120
  6
CONTINUOUS
 62
    11
 66
     1
  0
VERTEX
  8
RA_6120
 62
    11
 10
564649
 20
3258295
  0
VERTEX
  8
RA_6120
 62
    11
 10
564610
 20
3258297
  0
VERTEX
  8
RA_6120
 62
    11
 10
564580
 20
3258299
  0
VERTEX
  8
RA_6120
 62
    11
 10
564539
 20
3258324
  0
VERTEX
  8
RA_6120
 62
    11
 10
564539
 20
3258356
  0
VERTEX
  8
RA_6120
 62
    11
 10
564547
 20
3258387
  0
VERTEX
  8
RA_6120
 62
    11
 10
564556
 20
3258437
  0
VERTEX
  8
RA_6120
 62
    11
 10
564566
 20
3258464
  0
VERTEX
  8
RA_6120
 62
    11
 10
564523
 20
3258473
  0
VERTEX
  8
RA_6120
 62
    11
 10
564514
 20
3258483
  0
VERTEX
  8
RA_6120
 62
    11
 10
564484
 20
3258523
  0
VERTEX
  8
RA_6120
 62
    11
 10
564470
 20
3258566
  0
VERTEX
  8
RA_6120
 62
    11
 10
564454
 20
3258675
  0
VERTEX
  8
RA_6120
 62
    11
 10
564433
 20
3258714
  0
VERTEX
  8
RA_6120
 62
    11
 10
564401
 20
3258758
  0
VERTEX
  8
RA_6120
 62
    11
 10
564388
 20
3258796
  0
VERTEX
  8
RA_6120
 62
    11
 10
564371
 20
3258833
  0
VERTEX
  8
RA_6120
 62
    11
 10
564362
 20
3258864
  0
VERTEX
  8
RA_6120
 62
    11
 10
564343
 20
3258885
  0
VERTEX
  8
RA_6120
 62
    11
 10
564325
 20
3258894
  0
VERTEX
  8
RA_6120
 62
    11
 10
564259
 20
3258908
  0
VERTEX
  8
RA_6120
 62
    11
 10
564220
 20
3258910
  0
VERTEX
  8
RA_6120
 62
    11
 10
564211
 20
3258900
  0
VERTEX
  8
RA_6120
 62
    11
 10
564218
 20
3258879
  0
VERTEX
  8
RA_6120
 62
    11
 10
564233
 20
3258856
  0
VERTEX
  8
RA_6120
 62
    11
 10
564255
 20
3258800
  0
VERTEX
  8
RA_6120
 62
    11
 10
564264
 20
3258764
  0
VERTEX
  8
RA_6120
 62
    11
 10
564269
 20
3258741
  0
VERTEX
  8
RA_6120
 62
    11
 10
564261
 20
3258727
  0
VERTEX
  8
RA_6120
 62
    11
 10
564253
 20
3258716
  0
VERTEX
  8
RA_6120
 62
    11
 10
564248
 20
3258702
  0
VERTEX
  8
RA_6120
 62
    11
 10
564256
 20
3258691
  0
VERTEX
  8
RA_6120
 62
    11
 10
564266
 20
3258687
  0
VERTEX
  8
RA_6120
 62
    11
 10
564281
 20
3258679
  0
VERTEX
  8
RA_6120
 62
    11
 10
564285
 20
3258650
  0
VERTEX
  8
RA_6120
 62
    11
 10
564277
 20
3258635
  0
VERTEX
  8
RA_6120
 62
    11
 10
564288
 20
3258614
  0
VERTEX
  8
RA_6120
 62
    11
 10
564285
 20
3258581
  0
VERTEX
  8
RA_6120
 62
    11
 10
564285
 20
3258548
  0
VERTEX
  8
RA_6120
 62
    11
 10
564275
 20
3258533
  0
VERTEX
  8
RA_6120
 62
    11
 10
564257
 20
3258533
  0
VERTEX
  8
RA_6120
 62
    11
 10
564196
 20
3258564
  0
VERTEX
  8
RA_6120
 62
    11
 10
564171
 20
3258569
  0
VERTEX
  8
RA_6120
 62
    11
 10
564155
 20
3258566
  0
VERTEX
  8
RA_6120
 62
    11
 10
564128
 20
3258558
  0
VERTEX
  8
RA_6120
 62
    11
 10
564121
 20
3258560
  0
VERTEX
  8
RA_6120
 62
    11
 10
564106
 20
3258567
  0
VERTEX
  8
RA_6120
 62
    11
 10
564025
 20
3258633
  0
VERTEX
  8
RA_6120
 62
    11
 10
564002
 20
3258662
  0
VERTEX
  8
RA_6120
 62
    11
 10
563986
 20
3258685
  0
VERTEX
  8
RA_6120
 62
    11
 10
563963
 20
3258691
  0
VERTEX
  8
RA_6120
 62
    11
 10
563950
 20
3258683
  0
VERTEX
  8
RA_6120
 62
    11
 10
563934
 20
3258671
  0
VERTEX
  8
RA_6120
 62
    11
 10
563891
 20
3258675
  0
VERTEX
  8
RA_6120
 62
    11
 10
563876
 20
3258695
  0
VERTEX
  8
RA_6120
 62
    11
 10
563883
 20
3258720
  0
VERTEX
  8
RA_6120
 62
    11
 10
563884
 20
3258736
  0
VERTEX
  8
RA_6120
 62
    11
 10
563873
 20
3258778
  0
VERTEX
  8
RA_6120
 62
    11
 10
563849
 20
3258828
  0
VERTEX
  8
RA_6120
 62
    11
 10
563816
 20
3258838
  0
VERTEX
  8
RA_6120
 62
    11
 10
563780
 20
3258840
  0
VERTEX
  8
RA_6120
 62
    11
 10
563541
 20
3258815
  0
VERTEX
  8
RA_6120
 62
    11
 10
563531
 20
3258803
  0
VERTEX
  8
RA_6120
 62
    11
 10
563525
 20
3258780
  0
VERTEX
  8
RA_6120
 62
    11
 10
563525
 20
3258735
  0
VERTEX
  8
RA_6120
 62
    11
 10
563515
 20
3258720
  0
VERTEX
  8
RA_6120
 62
    11
 10
563492
 20
3258711
  0
VERTEX
  8
RA_6120
 62
    11
 10
563464
 20
3258709
  0
VERTEX
  8
RA_6120
 62
    11
 10
563398
 20
3258709
  0
VERTEX
  8
RA_6120
 62
    11
 10
563378
 20
3258720
  0
VERTEX
  8
RA_6120
 62
    11
 10
563364
 20
3258744
  0
VERTEX
  8
RA_6120
 62
    11
 10
563318
 20
3258839
  0
VERTEX
  8
RA_6120
 62
    11
 10
563299
 20
3258841
  0
VERTEX
  8
RA_6120
 62
    11
 10
563280
 20
3258846
  0
VERTEX
  8
RA_6120
 62
    11
 10
563261
 20
3258849
  0
VERTEX
  8
RA_6120
 62
    11
 10
563247
 20
3258848
  0
VERTEX
  8
RA_6120
 62
    11
 10
563238
 20
3258838
  0
VERTEX
  8
RA_6120
 62
    11
 10
563250
 20
3258820
  0
VERTEX
  8
RA_6120
 62
    11
 10
563264
 20
3258801
  0
VERTEX
  8
RA_6120
 62
    11
 10
563272
 20
3258781
  0
VERTEX
  8
RA_6120
 62
    11
 10
563271
 20
3258759
  0
VERTEX
  8
RA_6120
 62
    11
 10
563256
 20
3258742
  0
VERTEX
  8
RA_6120
 62
    11
 10
563236
 20
3258741
  0
VERTEX
  8
RA_6120
 62
    11
 10
563155
 20
3258762
  0
VERTEX
  8
RA_6120
 62
    11
 10
563124
 20
3258779
  0
VERTEX
  8
RA_6120
 62
    11
 10
563095
 20
3258787
  0
VERTEX
  8
RA_6120
 62
    11
 10
563079
 20
3258788
  0
VERTEX
  8
RA_6120
 62
    11
 10
563072
 20
3258778
  0
VERTEX
  8
RA_6120
 62
    11
 10
563079
 20
3258761
  0
VERTEX
  8
RA_6120
 62
    11
 10
563117
 20
3258694
  0
VERTEX
  8
RA_6120
 62
    11
 10
563138
 20
3258640
  0
VERTEX
  8
RA_6120
 62
    11
 10
563123
 20
3258626
  0
VERTEX
  8
RA_6120
 62
    11
 10
563101
 20
3258623
  0
VERTEX
  8
RA_6120
 62
    11
 10
563077
 20
3258624
  0
VERTEX
  8
RA_6120
 62
    11
 10
563061
 20
3258628
  0
VERTEX
  8
RA_6120
 62
    11
 10
563040
 20
3258647
  0
VERTEX
  8
RA_6120
 62
    11
 10
562935
 20
3258883
  0
VERTEX
  8
RA_6120
 62
    11
 10
562929
 20
3258901
  0
VERTEX
  8
RA_6120
 62
    11
 10
562947
 20
3258912
  0
VERTEX
  8
RA_6120
 62
    11
 10
562970
 20
3258917
  0
VERTEX
  8
RA_6120
 62
    11
 10
563045
 20
3258935
  0
VERTEX
  8
RA_6120
 62
    11
 10
563074
 20
3258949
  0
VERTEX
  8
RA_6120
 62
    11
 10
563068
 20
3258964
  0
VERTEX
  8
RA_6120
 62
    11
 10
563059
 20
3258977
  0
VERTEX
  8
RA_6120
 62
    11
 10
563037
 20
3258977
  0
VERTEX
  8
RA_6120
 62
    11
 10
563016
 20
3258975
  0
VERTEX
  8
RA_6120
 62
    11
 10
562998
 20
3259000
  0
VERTEX
  8
RA_6120
 62
    11
 10
562979
 20
3259037
  0
VERTEX
  8
RA_6120
 62
    11
 10
562937
 20
3259114
  0
VERTEX
  8
RA_6120
 62
    11
 10
562910
 20
3259144
  0
VERTEX
  8
RA_6120
 62
    11
 10
562889
 20
3259131
  0
VERTEX
  8
RA_6120
 62
    11
 10
562872
 20
3259129
  0
VERTEX
  8
RA_6120
 62
    11
 10
562862
 20
3259142
  0
VERTEX
  8
RA_6120
 62
    11
 10
562849
 20
3259177
  0
VERTEX
  8
RA_6120
 62
    11
 10
562858
 20
3259202
  0
VERTEX
  8
RA_6120
 62
    11
 10
562873
 20
3259212
  0
VERTEX
  8
RA_6120
 62
    11
 10
562879
 20
3259223
  0
VERTEX
  8
RA_6120
 62
    11
 10
562863
 20
3259256
  0
VERTEX
  8
RA_6120
 62
    11
 10
562851
 20
3259288
  0
VERTEX
  8
RA_6120
 62
    11
 10
562836
 20
3259290
  0
VERTEX
  8
RA_6120
 62
    11
 10
562791
 20
3259287
  0
VERTEX
  8
RA_6120
 62
    11
 10
562507
 20
3259272
  0
VERTEX
  8
RA_6120
 62
    11
 10
562481
 20
3259278
  0
VERTEX
  8
RA_6120
 62
    11
 10
562459
 20
3259293
  0
VERTEX
  8
RA_6120
 62
    11
 10
562453
 20
3259334
  0
VERTEX
  8
RA_6120
 62
    11
 10
562419
 20
3259495
  0
VERTEX
  8
RA_6120
 62
    11
 10
562431
 20
3259508
  0
VERTEX
  8
RA_6120
 62
    11
 10
562503
 20
3259511
  0
VERTEX
  8
RA_6120
 62
    11
 10
562670
 20
3259520
  0
VERTEX
  8
RA_6120
 62
    11
 10
562827
 20
3259539
  0
VERTEX
  8
RA_6120
 62
    11
 10
562854
 20
3259551
  0
VERTEX
  8
RA_6120
 62
    11
 10
562860
 20
3259575
  0
VERTEX
  8
RA_6120
 62
    11
 10
562852
 20
3259603
  0
VERTEX
  8
RA_6120
 62
    11
 10
562853
 20
3259654
  0
VERTEX
  8
RA_6120
 62
    11
 10
562832
 20
3259717
  0
VERTEX
  8
RA_6120
 62
    11
 10
562828
 20
3259773
  0
VERTEX
  8
RA_6120
 62
    11
 10
562812
 20
3259856
  0
SEQEND
  0
POLYLINE
  8
RA_6120
  6
CONTINUOUS
 62
    11
 66
     1
  0
VERTEX
  8
RA_6120
 62
    11
 10
564653
 20
3257620
  0
VERTEX
  8
RA_6120
 62
    11
 10
564649
 20
3258295
  0
SEQEND
  0
POLYLINE
  8
RA_6120
  6
CONTINUOUS
 62
    11
 66
     1
  0
VERTEX
  8
RA_6120
 62
    11
 10
564654
 20
3257465
  0
VERTEX
  8
RA_6120
 62
    11
 10
564635
 20
3257462
  0
VERTEX
  8
RA_6120
 62
    11
 10
564624
 20
3257468
  0
VERTEX
  8
RA_6120
 62
    11
 10
564614
 20
3257492
  0
VERTEX
  8
RA_6120
 62
    11
 10
564600
 20
3257575
  0
VERTEX
  8
RA_6120
 62
    11
 10
564604
 20
3257602
  0
VERTEX
  8
RA_6120
 62
    11
 10
564622
 20
3257614
  0
VERTEX
  8
RA_6120
 62
    11
 10
564635
 20
3257617
  0
VERTEX
  8
RA_6120
 62
    11
 10
564653
 20
3257620
  0
SEQEND
  0
POLYLINE
  8
RA_6120
  6
CONTINUOUS
 62
    11
 66
     1
  0
VERTEX
  8
RA_6120
 62
    11
 10
562484
 20
3256975
  0
VERTEX
  8
RA_6120
 62
    11
 10
562514
 20
3256987
  0
VERTEX
  8
RA_6120
 62
    11
 10
562590
 20
3257007
  0
VERTEX
  8
RA_6120
 62
    11
 10
562725
 20
3257039
  0
VERTEX
  8
RA_6120
 62
    11
 10
562751
 20
3257058
  0
VERTEX
  8
RA_6120
 62
    11
 10
562772
 20
3257091
  0
VERTEX
  8
RA_6120
 62
    11
 10
562813
 20
3257141
  0
VERTEX
  8
RA_6120
 62
    11
 10
562891
 20
3257178
  0
VERTEX
  8
RA_6120
 62
    11
 10
562893
 20
3257180
  0
VERTEX
  8
RA_6120
 62
    11
 10
562968
 20
3257222
  0
VERTEX
  8
RA_6120
 62
    11
 10
563082
 20
3257282
  0
VERTEX
  8
RA_6120
 62
    11
 10
563116
 20
3257297
  0
VERTEX
  8
RA_6120
 62
    11
 10
563160
 20
3257301
  0
VERTEX
  8
RA_6120
 62
    11
 10
563193
 20
3257305
  0
VERTEX
  8
RA_6120
 62
    11
 10
563298
 20
3257328
  0
VERTEX
  8
RA_6120
 62
    11
 10
563344
 20
3257328
  0
VERTEX
  8
RA_6120
 62
    11
 10
563360
 20
3257324
  0
VERTEX
  8
RA_6120
 62
    11
 10
563373
 20
3257301
  0
VERTEX
  8
RA_6120
 62
    11
 10
563378
 20
3257263
  0
VERTEX
  8
RA_6120
 62
    11
 10
563408
 20
3257128
  0
VERTEX
  8
RA_6120
 62
    11
 10
563444
 20
3256968
  0
VERTEX
  8
RA_6120
 62
    11
 10
563448
 20
3256938
  0
VERTEX
  8
RA_6120
 62
    11
 10
563430
 20
3256928
  0
VERTEX
  8
RA_6120
 62
    11
 10
563405
 20
3256926
  0
VERTEX
  8
RA_6120
 62
    11
 10
563388
 20
3256924
  0
VERTEX
  8
RA_6120
 62
    11
 10
563356
 20
3256918
  0
VERTEX
  8
RA_6120
 62
    11
 10
563285
 20
3256905
  0
VERTEX
  8
RA_6120
 62
    11
 10
563244
 20
3256877
  0
VERTEX
  8
RA_6120
 62
    11
 10
563290
 20
3256853
  0
VERTEX
  8
RA_6120
 62
    11
 10
563350
 20
3256819
  0
VERTEX
  8
RA_6120
 62
    11
 10
563411
 20
3256802
  0
VERTEX
  8
RA_6120
 62
    11
 10
563519
 20
3256803
  0
VERTEX
  8
RA_6120
 62
    11
 10
563587
 20
3256811
  0
VERTEX
  8
RA_6120
 62
    11
 10
563640
 20
3256812
  0
VERTEX
  8
RA_6120
 62
    11
 10
563675
 20
3256828
  0
VERTEX
  8
RA_6120
 62
    11
 10
563713
 20
3256843
  0
VERTEX
  8
RA_6120
 62
    11
 10
563746
 20
3256859
  0
VERTEX
  8
RA_6120
 62
    11
 10
563781
 20
3256878
  0
VERTEX
  8
RA_6120
 62
    11
 10
563803
 20
3256895
  0
VERTEX
  8
RA_6120
 62
    11
 10
563815
 20
3256912
  0
VERTEX
  8
RA_6120
 62
    11
 10
563824
 20
3256968
  0
VERTEX
  8
RA_6120
 62
    11
 10
563826
 20
3256993
  0
VERTEX
  8
RA_6120
 62
    11
 10
563844
 20
3257011
  0
VERTEX
  8
RA_6120
 62
    11
 10
563880
 20
3257032
  0
VERTEX
  8
RA_6120
 62
    11
 10
563927
 20
3257037
  0
VERTEX
  8
RA_6120
 62
    11
 10
563945
 20
3257059
  0
VERTEX
  8
RA_6120
 62
    11
 10
563962
 20
3257085
  0
VERTEX
  8
RA_6120
 62
    11
 10
563985
 20
3257103
  0
VERTEX
  8
RA_6120
 62
    11
 10
564026
 20
3257141
  0
VERTEX
  8
RA_6120
 62
    11
 10
564029
 20
3257159
  0
VERTEX
  8
RA_6120
 62
    11
 10
563993
 20
3257174
  0
VERTEX
  8
RA_6120
 62
    11
 10
563876
 20
3257220
  0
VERTEX
  8
RA_6120
 62
    11
 10
563838
 20
3257224
  0
VERTEX
  8
RA_6120
 62
    11
 10
563810
 20
3257226
  0
VERTEX
  8
RA_6120
 62
    11
 10
563787
 20
3257244
  0
VERTEX
  8
RA_6120
 62
    11
 10
563776
 20
3257268
  0
VERTEX
  8
RA_6120
 62
    11
 10
563771
 20
3257303
  0
VERTEX
  8
RA_6120
 62
    11
 10
563781
 20
3257331
  0
VERTEX
  8
RA_6120
 62
    11
 10
563809
 20
3257359
  0
VERTEX
  8
RA_6120
 62
    11
 10
563832
 20
3257357
  0
VERTEX
  8
RA_6120
 62
    11
 10
563931
 20
3257371
  0
VERTEX
  8
RA_6120
 62
    11
 10
564092
 20
3257396
  0
VERTEX
  8
RA_6120
 62
    11
 10
564142
 20
3257400
  0
VERTEX
  8
RA_6120
 62
    11
 10
564178
 20
3257395
  0
VERTEX
  8
RA_6120
 62
    11
 10
564221
 20
3257384
  0
VERTEX
  8
RA_6120
 62
    11
 10
564311
 20
3257367
  0
VERTEX
  8
RA_6120
 62
    11
 10
564337
 20
3257373
  0
VERTEX
  8
RA_6120
 62
    11
 10
564337
 20
3257388
  0
VERTEX
  8
RA_6120
 62
    11
 10
564355
 20
3257399
  0
VERTEX
  8
RA_6120
 62
    11
 10
564380
 20
3257395
  0
VERTEX
  8
RA_6120
 62
    11
 10
564415
 20
3257378
  0
VERTEX
  8
RA_6120
 62
    11
 10
564419
 20
3257357
  0
VERTEX
  8
RA_6120
 62
    11
 10
564419
 20
3257340
  0
VERTEX
  8
RA_6120
 62
    11
 10
564386
 20
3257320
  0
VERTEX
  8
RA_6120
 62
    11
 10
564352
 20
3257309
  0
VERTEX
  8
RA_6120
 62
    11
 10
564347
 20
3257292
  0
VERTEX
  8
RA_6120
 62
    11
 10
564339
 20
3257265
  0
VERTEX
  8
RA_6120
 62
    11
 10
564330
 20
3257217
  0
VERTEX
  8
RA_6120
 62
    11
 10
564341
 20
3257203
  0
VERTEX
  8
RA_6120
 62
    11
 10
564367
 20
3257209
  0
VERTEX
  8
RA_6120
 62
    11
 10
564403
 20
3257219
  0
VERTEX
  8
RA_6120
 62
    11
 10
564489
 20
3257236
  0
VERTEX
  8
RA_6120
 62
    11
 10
564512
 20
3257230
  0
VERTEX
  8
RA_6120
 62
    11
 10
564511
 20
3257192
  0
VERTEX
  8
RA_6120
 62
    11
 10
564486
 20
3257167
  0
VERTEX
  8
RA_6120
 62
    11
 10
564439
 20
3257144
  0
VERTEX
  8
RA_6120
 62
    11
 10
564351
 20
3257109
  0
VERTEX
  8
RA_6120
 62
    11
 10
564317
 20
3257094
  0
VERTEX
  8
RA_6120
 62
    11
 10
564301
 20
3257076
  0
VERTEX
  8
RA_6120
 62
    11
 10
564319
 20
3257055
  0
VERTEX
  8
RA_6120
 62
    11
 10
564346
 20
3257056
  0
VERTEX
  8
RA_6120
 62
    11
 10
564390
 20
3257073
  0
VERTEX
  8
RA_6120
 62
    11
 10
564474
 20
3257116
  0
VERTEX
  8
RA_6120
 62
    11
 10
564569
 20
3257153
  0
VERTEX
  8
RA_6120
 62
    11
 10
564608
 20
3257158
  0
VERTEX
  8
RA_6120
 62
    11
 10
564634
 20
3257158
  0
VERTEX
  8
RA_6120
 62
    11
 10
564656
 20
3257147
  0
SEQEND
  0
POLYLINE
  8
RA_6120
  6
CONTINUOUS
 62
    11
 66
     1
  0
VERTEX
  8
RA_6120
 62
    11
 10
564656
 20
3257147
  0
VERTEX
  8
RA_6120
 62
    11
 10
564654
 20
3257465
  0
SEQEND
  0
POLYLINE
  8
RA_6120
  6
CONTINUOUS
 62
    11
 66
     1
  0
VERTEX
  8
RA_6120
 62
    11
 10
535210
 20
3236041
  0
VERTEX
  8
RA_6120
 62
    11
 10
535225
 20
3236063
  0
VERTEX
  8
RA_6120
 62
    11
 10
535246
 20
3236076
  0
VERTEX
  8
RA_6120
 62
    11
 10
535273
 20
3236088
  0
VERTEX
  8
RA_6120
 62
    11
 10
535295
 20
3236107
  0
VERTEX
  8
RA_6120
 62
    11
 10
535308
 20
3236120
  0
VERTEX
  8
RA_6120
 62
    11
 10
535341
 20
3236142
  0
VERTEX
  8
RA_6120
 62
    11
 10
535451
 20
3236203
  0
VERTEX
  8
RA_6120
 62
    11
 10
535474
 20
3236194
  0
VERTEX
  8
RA_6120
 62
    11
 10
535489
 20
3236207
  0
VERTEX
  8
RA_6120
 62
    11
 10
535493
 20
3236224
  0
VERTEX
  8
RA_6120
 62
    11
 10
535509
 20
3236233
  0
VERTEX
  8
RA_6120
 62
    11
 10
535537
 20
3236219
  0
VERTEX
  8
RA_6120
 62
    11
 10
535576
 20
3236184
  0
VERTEX
  8
RA_6120
 62
    11
 10
535634
 20
3236130
  0
VERTEX
  8
RA_6120
 62
    11
 10
535702
 20
3236070
  0
VERTEX
  8
RA_6120
 62
    11
 10
535732
 20
3236046
  0
VERTEX
  8
RA_6120
 62
    11
 10
535744
 20
3236032
  0
VERTEX
  8
RA_6120
 62
    11
 10
535756
 20
3236017
  0
VERTEX
  8
RA_6120
 62
    11
 10
535747
 20
3235997
  0
VERTEX
  8
RA_6120
 62
    11
 10
535743
 20
3235989
  0
VERTEX
  8
RA_6120
 62
    11
 10
535713
 20
3235965
  0
VERTEX
  8
RA_6120
 62
    11
 10
535694
 20
3235953
  0
VERTEX
  8
RA_6120
 62
    11
 10
535670
 20
3235940
  0
VERTEX
  8
RA_6120
 62
    11
 10
535649
 20
3235930
  0
VERTEX
  8
RA_6120
 62
    11
 10
535623
 20
3235915
  0
VERTEX
  8
RA_6120
 62
    11
 10
535629
 20
3235898
  0
VERTEX
  8
RA_6120
 62
    11
 10
535648
 20
3235898
  0
VERTEX
  8
RA_6120
 62
    11
 10
535669
 20
3235891
  0
VERTEX
  8
RA_6120
 62
    11
 10
535682
 20
3235875
  0
VERTEX
  8
RA_6120
 62
    11
 10
535724
 20
3235867
  0
VERTEX
  8
RA_6120
 62
    11
 10
535742
 20
3235877
  0
VERTEX
  8
RA_6120
 62
    11
 10
535759
 20
3235897
  0
VERTEX
  8
RA_6120
 62
    11
 10
535768
 20
3235912
  0
VERTEX
  8
RA_6120
 62
    11
 10
535785
 20
3235923
  0
VERTEX
  8
RA_6120
 62
    11
 10
535811
 20
3235936
  0
VERTEX
  8
RA_6120
 62
    11
 10
535835
 20
3235947
  0
VERTEX
  8
RA_6120
 62
    11
 10
535853
 20
3235945
  0
VERTEX
  8
RA_6120
 62
    11
 10
535878
 20
3235925
  0
VERTEX
  8
RA_6120
 62
    11
 10
535912
 20
3235875
  0
VERTEX
  8
RA_6120
 62
    11
 10
535905
 20
3235867
  0
VERTEX
  8
RA_6120
 62
    11
 10
535882
 20
3235859
  0
VERTEX
  8
RA_6120
 62
    11
 10
535875
 20
3235840
  0
VERTEX
  8
RA_6120
 62
    11
 10
535884
 20
3235822
  0
VERTEX
  8
RA_6120
 62
    11
 10
535875
 20
3235808
  0
VERTEX
  8
RA_6120
 62
    11
 10
535857
 20
3235797
  0
VERTEX
  8
RA_6120
 62
    11
 10
535812
 20
3235777
  0
VERTEX
  8
RA_6120
 62
    11
 10
535797
 20
3235763
  0
VERTEX
  8
RA_6120
 62
    11
 10
535776
 20
3235764
  0
VERTEX
  8
RA_6120
 62
    11
 10
535758
 20
3235772
  0
VERTEX
  8
RA_6120
 62
    11
 10
535743
 20
3235782
  0
VERTEX
  8
RA_6120
 62
    11
 10
535732
 20
3235803
  0
VERTEX
  8
RA_6120
 62
    11
 10
535720
 20
3235813
  0
VERTEX
  8
RA_6120
 62
    11
 10
535702
 20
3235815
  0
VERTEX
  8
RA_6120
 62
    11
 10
535672
 20
3235808
  0
VERTEX
  8
RA_6120
 62
    11
 10
535656
 20
3235807
  0
VERTEX
  8
RA_6120
 62
    11
 10
535641
 20
3235806
  0
VERTEX
  8
RA_6120
 62
    11
 10
535623
 20
3235810
  0
VERTEX
  8
RA_6120
 62
    11
 10
535609
 20
3235820
  0
VERTEX
  8
RA_6120
 62
    11
 10
535584
 20
3235806
  0
VERTEX
  8
RA_6120
 62
    11
 10
535567
 20
3235799
  0
VERTEX
  8
RA_6120
 62
    11
 10
535552
 20
3235790
  0
VERTEX
  8
RA_6120
 62
    11
 10
535540
 20
3235779
  0
VERTEX
  8
RA_6120
 62
    11
 10
535538
 20
3235766
  0
VERTEX
  8
RA_6120
 62
    11
 10
535544
 20
3235753
  0
VERTEX
  8
RA_6120
 62
    11
 10
535546
 20
3235739.999999
  0
SEQEND
  0
POLYLINE
  8
RA_6120
  6
CONTINUOUS
 62
    11
 66
     1
  0
VERTEX
  8
RA_6120
 62
    11
 10
535546
 20
3235739.999999
  0
VERTEX
  8
RA_6120
 62
    11
 10
535392
 20
3235739.999999
  0
SEQEND
  0
POLYLINE
  8
RA_6120
  6
CONTINUOUS
 62
    11
 66
     1
  0
VERTEX
  8
RA_6120
 62
    11
 10
534613
 20
3235737
  0
VERTEX
  8
RA_6120
 62
    11
 10
534690
 20
3235771
  0
VERTEX
  8
RA_6120
 62
    11
 10
534711
 20
3235776
  0
VERTEX
  8
RA_6120
 62
    11
 10
534754
 20
3235793
  0
VERTEX
  8
RA_6120
 62
    11
 10
534761
 20
3235810
  0
VERTEX
  8
RA_6120
 62
    11
 10
534767
 20
3235839
  0
VERTEX
  8
RA_6120
 62
    11
 10
534777
 20
3235860
  0
VERTEX
  8
RA_6120
 62
    11
 10
534790
 20
3235877
  0
VERTEX
  8
RA_6120
 62
    11
 10
534815
 20
3235886
  0
VERTEX
  8
RA_6120
 62
    11
 10
534835
 20
3235875
  0
VERTEX
  8
RA_6120
 62
    11
 10
534853
 20
3235857
  0
VERTEX
  8
RA_6120
 62
    11
 10
534877
 20
3235857
  0
VERTEX
  8
RA_6120
 62
    11
 10
534900
 20
3235868
  0
VERTEX
  8
RA_6120
 62
    11
 10
534969
 20
3235893
  0
VERTEX
  8
RA_6120
 62
    11
 10
535000
 20
3235920
  0
VERTEX
  8
RA_6120
 62
    11
 10
535026
 20
3235938
  0
VERTEX
  8
RA_6120
 62
    11
 10
535084
 20
3235967
  0
VERTEX
  8
RA_6120
 62
    11
 10
535153
 20
3235996
  0
VERTEX
  8
RA_6120
 62
    11
 10
535184
 20
3236003
  0
VERTEX
  8
RA_6120
 62
    11
 10
535207
 20
3235990
  0
VERTEX
  8
RA_6120
 62
    11
 10
535222
 20
3235975
  0
VERTEX
  8
RA_6120
 62
    11
 10
535233
 20
3235954
  0
VERTEX
  8
RA_6120
 62
    11
 10
535243
 20
3235935
  0
VERTEX
  8
RA_6120
 62
    11
 10
535225
 20
3235917
  0
VERTEX
  8
RA_6120
 62
    11
 10
535159
 20
3235860
  0
VERTEX
  8
RA_6120
 62
    11
 10
535086
 20
3235811
  0
VERTEX
  8
RA_6120
 62
    11
 10
535066
 20
3235801
  0
VERTEX
  8
RA_6120
 62
    11
 10
535051
 20
3235801
  0
VERTEX
  8
RA_6120
 62
    11
 10
535031
 20
3235802
  0
VERTEX
  8
RA_6120
 62
    11
 10
535006
 20
3235793
  0
VERTEX
  8
RA_6120
 62
    11
 10
535060
 20
3235773
  0
VERTEX
  8
RA_6120
 62
    11
 10
535051
 20
3235738
  0
SEQEND
  0
POLYLINE
  8
RA_6120
  6
CONTINUOUS
 62
    11
 66
     1
  0
VERTEX
  8
RA_6120
 62
    11
 10
535051
 20
3235738
  0
VERTEX
  8
RA_6120
 62
    11
 10
534613
 20
3235737
  0
SEQEND
  0
POLYLINE
  8
RA_6120
  6
CONTINUOUS
 62
    11
 66
     1
  0
VERTEX
  8
RA_6120
 62
    11
 10
533084
 20
3236371
  0
VERTEX
  8
RA_6120
 62
    11
 10
533107
 20
3236365
  0
VERTEX
  8
RA_6120
 62
    11
 10
533149
 20
3236355
  0
VERTEX
  8
RA_6120
 62
    11
 10
533165
 20
3236357
  0
VERTEX
  8
RA_6120
 62
    11
 10
533178
 20
3236368
  0
VERTEX
  8
RA_6120
 62
    11
 10
533173
 20
3236393
  0
VERTEX
  8
RA_6120
 62
    11
 10
533121
 20
3236492
  0
VERTEX
  8
RA_6120
 62
    11
 10
533052
 20
3236604
  0
VERTEX
  8
RA_6120
 62
    11
 10
533036
 20
3236629
  0
VERTEX
  8
RA_6120
 62
    11
 10
533016
 20
3236653
  0
VERTEX
  8
RA_6120
 62
    11
 10
532950
 20
3236538
  0
VERTEX
  8
RA_6120
 62
    11
 10
532914
 20
3236473
  0
VERTEX
  8
RA_6120
 62
    11
 10
532892
 20
3236418
  0
VERTEX
  8
RA_6120
 62
    11
 10
532893
 20
3236373
  0
VERTEX
  8
RA_6120
 62
    11
 10
532971
 20
3236234
  0
VERTEX
  8
RA_6120
 62
    11
 10
532991
 20
3236202
  0
VERTEX
  8
RA_6120
 62
    11
 10
532985
 20
3236186
  0
VERTEX
  8
RA_6120
 62
    11
 10
532970
 20
3236183
  0
VERTEX
  8
RA_6120
 62
    11
 10
532952
 20
3236203
  0
VERTEX
  8
RA_6120
 62
    11
 10
532933
 20
3236214
  0
VERTEX
  8
RA_6120
 62
    11
 10
532902
 20
3236203
  0
VERTEX
  8
RA_6120
 62
    11
 10
532877
 20
3236191
  0
VERTEX
  8
RA_6120
 62
    11
 10
532840
 20
3236180
  0
VERTEX
  8
RA_6120
 62
    11
 10
532817
 20
3236195
  0
VERTEX
  8
RA_6120
 62
    11
 10
532801
 20
3236240
  0
VERTEX
  8
RA_6120
 62
    11
 10
532715
 20
3236401
  0
VERTEX
  8
RA_6120
 62
    11
 10
532697
 20
3236420
  0
VERTEX
  8
RA_6120
 62
    11
 10
532680
 20
3236421
  0
VERTEX
  8
RA_6120
 62
    11
 10
532486
 20
3236366
  0
VERTEX
  8
RA_6120
 62
    11
 10
532476
 20
3236351
  0
VERTEX
  8
RA_6120
 62
    11
 10
532481
 20
3236322
  0
VERTEX
  8
RA_6120
 62
    11
 10
532499
 20
3236296
  0
VERTEX
  8
RA_6120
 62
    11
 10
532509
 20
3236271
  0
VERTEX
  8
RA_6120
 62
    11
 10
532494
 20
3236252
  0
VERTEX
  8
RA_6120
 62
    11
 10
532451
 20
3236228
  0
VERTEX
  8
RA_6120
 62
    11
 10
532417
 20
3236210
  0
VERTEX
  8
RA_6120
 62
    11
 10
532401
 20
3236218
  0
VERTEX
  8
RA_6120
 62
    11
 10
532387
 20
3236254
  0
SEQEND
  0
POLYLINE
  8
RA_6120
  6
CONTINUOUS
 62
    11
 66
     1
  0
VERTEX
  8
RA_6120
 62
    11
 10
532387
 20
3236254
  0
VERTEX
  8
RA_6120
 62
    11
 10
532388
 20
3235730
  0
VERTEX
  8
RA_6120
 62
    11
 10
532576
 20
3235731
  0
SEQEND
  0
POLYLINE
  8
RA_6820
  6
CONTINUOUS
 62
    15
 66
     1
  0
VERTEX
  8
RA_6820
 62
    15
 10
533993
 20
3236336
  0
VERTEX
  8
RA_6820
 62
    15
 10
533994
 20
3236387
  0
VERTEX
  8
RA_6820
 62
    15
 10
533995
 20
3236413
  0
VERTEX
  8
RA_6820
 62
    15
 10
534008
 20
3236453
  0
VERTEX
  8
RA_6820
 62
    15
 10
533987
 20
3236502
  0
VERTEX
  8
RA_6820
 62
    15
 10
533970
 20
3236516
  0
VERTEX
  8
RA_6820
 62
    15
 10
533970
 20
3236545
  0
VERTEX
  8
RA_6820
 62
    15
 10
533961
 20
3236599
  0
VERTEX
  8
RA_6820
 62
    15
 10
533969
 20
3236625
  0
VERTEX
  8
RA_6820
 62
    15
 10
533951
 20
3236655
  0
VERTEX
  8
RA_6820
 62
    15
 10
533910
 20
3236677.0001
  0
VERTEX
  8
RA_6820
 62
    15
 10
533883
 20
3236698.0001
  0
VERTEX
  8
RA_6820
 62
    15
 10
533859
 20
3236719.0001
  0
VERTEX
  8
RA_6820
 62
    15
 10
533818
 20
3236735.0001
  0
VERTEX
  8
RA_6820
 62
    15
 10
533772
 20
3236714.0001
  0
VERTEX
  8
RA_6820
 62
    15
 10
533706
 20
3236681.0001
  0
VERTEX
  8
RA_6820
 62
    15
 10
533654
 20
3236642
  0
VERTEX
  8
RA_6820
 62
    15
 10
533622
 20
3236612
  0
VERTEX
  8
RA_6820
 62
    15
 10
533604
 20
3236603
  0
VERTEX
  8
RA_6820
 62
    15
 10
533582
 20
3236609
  0
VERTEX
  8
RA_6820
 62
    15
 10
533575
 20
3236636
  0
VERTEX
  8
RA_6820
 62
    15
 10
533570
 20
3236669.0001
  0
VERTEX
  8
RA_6820
 62
    15
 10
533555
 20
3236687.0001
  0
VERTEX
  8
RA_6820
 62
    15
 10
533543
 20
3236690.0001
  0
SEQEND
  0
POLYLINE
  8
RA_6820
  6
CONTINUOUS
 62
    15
 66
     1
  0
VERTEX
  8
RA_6820
 62
    15
 10
534948
 20
3236384
  0
VERTEX
  8
RA_6820
 62
    15
 10
534917
 20
3236376
  0
VERTEX
  8
RA_6820
 62
    15
 10
534761
 20
3236328
  0
VERTEX
  8
RA_6820
 62
    15
 10
534738
 20
3236324
  0
VERTEX
  8
RA_6820
 62
    15
 10
534736
 20
3236354
  0
VERTEX
  8
RA_6820
 62
    15
 10
534742
 20
3236371
  0
VERTEX
  8
RA_6820
 62
    15
 10
534758
 20
3236408
  0
VERTEX
  8
RA_6820
 62
    15
 10
534842
 20
3236506
  0
VERTEX
  8
RA_6820
 62
    15
 10
534939
 20
3236590
  0
VERTEX
  8
RA_6820
 62
    15
 10
534994
 20
3236617
  0
VERTEX
  8
RA_6820
 62
    15
 10
534992
 20
3236641
  0
VERTEX
  8
RA_6820
 62
    15
 10
534984
 20
3236669.0001
  0
VERTEX
  8
RA_6820
 62
    15
 10
534976
 20
3236684.0001
  0
VERTEX
  8
RA_6820
 62
    15
 10
534939
 20
3236652
  0
VERTEX
  8
RA_6820
 62
    15
 10
534880
 20
3236622
  0
VERTEX
  8
RA_6820
 62
    15
 10
534829
 20
3236598
  0
VERTEX
  8
RA_6820
 62
    15
 10
534793
 20
3236582
  0
VERTEX
  8
RA_6820
 62
    15
 10
534774
 20
3236575
  0
SEQEND
  0
POLYLINE
  8
RA_6820
  6
CONTINUOUS
 62
    15
 66
     1
  0
VERTEX
  8
RA_6820
 62
    15
 10
533993
 20
3236336
  0
VERTEX
  8
RA_6820
 62
    15
 10
534020
 20
3236305
  0
VERTEX
  8
RA_6820
 62
    15
 10
534049
 20
3236280
  0
VERTEX
  8
RA_6820
 62
    15
 10
534095
 20
3236235
  0
VERTEX
  8
RA_6820
 62
    15
 10
534137
 20
3236211
  0
VERTEX
  8
RA_6820
 62
    15
 10
534167
 20
3236211
  0
VERTEX
  8
RA_6820
 62
    15
 10
534197
 20
3236208
  0
VERTEX
  8
RA_6820
 62
    15
 10
534227
 20
3236188
  0
VERTEX
  8
RA_6820
 62
    15
 10
534256
 20
3236177
  0
VERTEX
  8
RA_6820
 62
    15
 10
534297
 20
3236199
  0
VERTEX
  8
RA_6820
 62
    15
 10
534324
 20
3236217
  0
VERTEX
  8
RA_6820
 62
    15
 10
534460
 20
3236283
  0
VERTEX
  8
RA_6820
 62
    15
 10
534501
 20
3236301
  0
VERTEX
  8
RA_6820
 62
    15
 10
534549
 20
3236315
  0
VERTEX
  8
RA_6820
 62
    15
 10
534589
 20
3236316
  0
VERTEX
  8
RA_6820
 62
    15
 10
534626
 20
3236330
  0
VERTEX
  8
RA_6820
 62
    15
 10
534656
 20
3236352
  0
VERTEX
  8
RA_6820
 62
    15
 10
534677
 20
3236373
  0
VERTEX
  8
RA_6820
 62
    15
 10
534695
 20
3236416
  0
VERTEX
  8
RA_6820
 62
    15
 10
534698
 20
3236440
  0
VERTEX
  8
RA_6820
 62
    15
 10
534713
 20
3236465
  0
VERTEX
  8
RA_6820
 62
    15
 10
534730
 20
3236514
  0
VERTEX
  8
RA_6820
 62
    15
 10
534743
 20
3236546
  0
VERTEX
  8
RA_6820
 62
    15
 10
534756
 20
3236563
  0
VERTEX
  8
RA_6820
 62
    15
 10
534774
 20
3236575
  0
SEQEND
  0
POLYLINE
  8
RA_6820
  6
CONTINUOUS
 62
    15
 66
     1
  0
VERTEX
  8
RA_6820
 62
    15
 10
535580
 20
3236360
  0
VERTEX
  8
RA_6820
 62
    15
 10
535521
 20
3236353
  0
VERTEX
  8
RA_6820
 62
    15
 10
535496
 20
3236366
  0
VERTEX
  8
RA_6820
 62
    15
 10
535453
 20
3236372
  0
VERTEX
  8
RA_6820
 62
    15
 10
535441
 20
3236367
  0
VERTEX
  8
RA_6820
 62
    15
 10
535420
 20
3236358
  0
VERTEX
  8
RA_6820
 62
    15
 10
535384
 20
3236353
  0
VERTEX
  8
RA_6820
 62
    15
 10
535339
 20
3236362
  0
VERTEX
  8
RA_6820
 62
    15
 10
535218
 20
3236380
  0
VERTEX
  8
RA_6820
 62
    15
 10
535167
 20
3236380
  0
VERTEX
  8
RA_6820
 62
    15
 10
535143
 20
3236381
  0
VERTEX
  8
RA_6820
 62
    15
 10
535098
 20
3236365
  0
VERTEX
  8
RA_6820
 62
    15
 10
535056
 20
3236369
  0
VERTEX
  8
RA_6820
 62
    15
 10
535003
 20
3236366
  0
VERTEX
  8
RA_6820
 62
    15
 10
534978
 20
3236372
  0
VERTEX
  8
RA_6820
 62
    15
 10
534948
 20
3236384
  0
SEQEND
  0
POLYLINE
  8
RA_6820
  6
CONTINUOUS
 62
    15
 66
     1
  0
VERTEX
  8
RA_6820
 62
    15
 10
533543
 20
3236690.0001
  0
VERTEX
  8
RA_6820
 62
    15
 10
533536
 20
3236680.0001
  0
VERTEX
  8
RA_6820
 62
    15
 10
533502
 20
3236619
  0
VERTEX
  8
RA_6820
 62
    15
 10
533493
 20
3236588
  0
VERTEX
  8
RA_6820
 62
    15
 10
533495
 20
3236559
  0
VERTEX
  8
RA_6820
 62
    15
 10
533456
 20
3236494
  0
VERTEX
  8
RA_6820
 62
    15
 10
533451
 20
3236467
  0
VERTEX
  8
RA_6820
 62
    15
 10
533444
 20
3236434
  0
VERTEX
  8
RA_6820
 62
    15
 10
533428
 20
3236414
  0
VERTEX
  8
RA_6820
 62
    15
 10
533413
 20
3236402
  0
VERTEX
  8
RA_6820
 62
    15
 10
533400
 20
3236413
  0
VERTEX
  8
RA_6820
 62
    15
 10
533385
 20
3236419
  0
VERTEX
  8
RA_6820
 62
    15
 10
533342
 20
3236403
  0
VERTEX
  8
RA_6820
 62
    15
 10
533328
 20
3236371
  0
VERTEX
  8
RA_6820
 62
    15
 10
533324.0001
 20
3236351
  0
VERTEX
  8
RA_6820
 62
    15
 10
533304.0001
 20
3236332
  0
VERTEX
  8
RA_6820
 62
    15
 10
533271.0001
 20
3236315
  0
VERTEX
  8
RA_6820
 62
    15
 10
533251.0001
 20
3236298
  0
VERTEX
  8
RA_6820
 62
    15
 10
533251.0001
 20
3236278
  0
VERTEX
  8
RA_6820
 62
    15
 10
533257.0001
 20
3236256
  0
VERTEX
  8
RA_6820
 62
    15
 10
533224
 20
3236235
  0
VERTEX
  8
RA_6820
 62
    15
 10
533195
 20
3236233
  0
VERTEX
  8
RA_6820
 62
    15
 10
533156
 20
3236220
  0
VERTEX
  8
RA_6820
 62
    15
 10
533135
 20
3236223
  0
VERTEX
  8
RA_6820
 62
    15
 10
533113
 20
3236241
  0
VERTEX
  8
RA_6820
 62
    15
 10
533082
 20
3236315
  0
VERTEX
  8
RA_6820
 62
    15
 10
533065
 20
3236337
  0
VERTEX
  8
RA_6820
 62
    15
 10
533066
 20
3236360
  0
VERTEX
  8
RA_6820
 62
    15
 10
533084
 20
3236371
  0
SEQEND
  0
POLYLINE
  8
RA_6820
  6
CONTINUOUS
 62
    15
 66
     1
  0
VERTEX
  8
RA_6820
 62
    15
 10
534390
 20
3235736
  0
VERTEX
  8
RA_6820
 62
    15
 10
534470
 20
3235775
  0
VERTEX
  8
RA_6820
 62
    15
 10
534524
 20
3235809
  0
VERTEX
  8
RA_6820
 62
    15
 10
534565
 20
3235838
  0
VERTEX
  8
RA_6820
 62
    15
 10
534577
 20
3235850
  0
VERTEX
  8
RA_6820
 62
    15
 10
534601
 20
3235863
  0
VERTEX
  8
RA_6820
 62
    15
 10
534678
 20
3235875
  0
VERTEX
  8
RA_6820
 62
    15
 10
534791
 20
3235911
  0
VERTEX
  8
RA_6820
 62
    15
 10
534879
 20
3235938
  0
VERTEX
  8
RA_6820
 62
    15
 10
534948
 20
3235955
  0
VERTEX
  8
RA_6820
 62
    15
 10
534985
 20
3235980
  0
VERTEX
  8
RA_6820
 62
    15
 10
535062
 20
3236026
  0
VERTEX
  8
RA_6820
 62
    15
 10
535151
 20
3236077
  0
VERTEX
  8
RA_6820
 62
    15
 10
535214
 20
3236103
  0
VERTEX
  8
RA_6820
 62
    15
 10
535410
 20
3236201
  0
VERTEX
  8
RA_6820
 62
    15
 10
535471
 20
3236250
  0
VERTEX
  8
RA_6820
 62
    15
 10
535541
 20
3236326
  0
VERTEX
  8
RA_6820
 62
    15
 10
535580
 20
3236360
  0
SEQEND
  0
POLYLINE
  8
RA_6820
  6
CONTINUOUS
 62
    15
 66
     1
  0
VERTEX
  8
RA_6820
 62
    15
 10
533084
 20
3236371
  0
VERTEX
  8
RA_6820
 62
    15
 10
533104
 20
3236393
  0
VERTEX
  8
RA_6820
 62
    15
 10
533086
 20
3236418
  0
VERTEX
  8
RA_6820
 62
    15
 10
533053
 20
3236428
  0
VERTEX
  8
RA_6820
 62
    15
 10
533009
 20
3236414
  0
VERTEX
  8
RA_6820
 62
    15
 10
532976
 20
3236399
  0
VERTEX
  8
RA_6820
 62
    15
 10
532936
 20
3236398
  0
VERTEX
  8
RA_6820
 62
    15
 10
532916
 20
3236391
  0
VERTEX
  8
RA_6820
 62
    15
 10
532902
 20
3236412
  0
VERTEX
  8
RA_6820
 62
    15
 10
532835
 20
3236444
  0
VERTEX
  8
RA_6820
 62
    15
 10
532806
 20
3236456
  0
VERTEX
  8
RA_6820
 62
    15
 10
532764
 20
3236467
  0
VERTEX
  8
RA_6820
 62
    15
 10
532722
 20
3236452
  0
VERTEX
  8
RA_6820
 62
    15
 10
532704
 20
3236443
  0
VERTEX
  8
RA_6820
 62
    15
 10
532664
 20
3236461
  0
VERTEX
  8
RA_6820
 62
    15
 10
532608
 20
3236446
  0
VERTEX
  8
RA_6820
 62
    15
 10
532523
 20
3236404
  0
VERTEX
  8
RA_6820
 62
    15
 10
532460
 20
3236369
  0
VERTEX
  8
RA_6820
 62
    15
 10
532444
 20
3236370
  0
VERTEX
  8
RA_6820
 62
    15
 10
532427
 20
3236361
  0
VERTEX
  8
RA_6820
 62
    15
 10
532417
 20
3236354
  0
VERTEX
  8
RA_6820
 62
    15
 10
532386
 20
3236333
  0
SEQEND
  0
POLYLINE
  8
RA_6820
  6
CONTINUOUS
 62
    15
 66
     1
  0
VERTEX
  8
RA_6820
 62
    15
 10
532386
 20
3236333
  0
VERTEX
  8
RA_6820
 62
    15
 10
532388
 20
3235730
  0
VERTEX
  8
RA_6820
 62
    15
 10
534390
 20
3235736
  0
SEQEND
  0
POLYLINE
  8
RA_6881
  6
CONTINUOUS
 62
     7
 66
     1
  0
VERTEX
  8
RA_6881
 62
     7
 10
548512
 20
3248265
  0
VERTEX
  8
RA_6881
 62
     7
 10
548537
 20
3248265
  0
VERTEX
  8
RA_6881
 62
     7
 10
548562
 20
3248266
  0
VERTEX
  8
RA_6881
 62
     7
 10
548588
 20
3248263
  0
VERTEX
  8
RA_6881
 62
     7
 10
548617
 20
3248253
  0
VERTEX
  8
RA_6881
 62
     7
 10
548640
 20
3248251
  0
VERTEX
  8
RA_6881
 62
     7
 10
548667
 20
3248253
  0
VERTEX
  8
RA_6881
 62
     7
 10
548692
 20
3248255
  0
VERTEX
  8
RA_6881
 62
     7
 10
548715
 20
3248251
  0
VERTEX
  8
RA_6881
 62
     7
 10
548742
 20
3248255
  0
VERTEX
  8
RA_6881
 62
     7
 10
548767
 20
3248267
  0
VERTEX
  8
RA_6881
 62
     7
 10
548786
 20
3248274
  0
VERTEX
  8
RA_6881
 62
     7
 10
548813
 20
3248277
  0
VERTEX
  8
RA_6881
 62
     7
 10
548836
 20
3248283
  0
SEQEND
  0
POLYLINE
  8
RA_6881
  6
CONTINUOUS
 62
     7
 66
     1
  0
VERTEX
  8
RA_6881
 62
     7
 10
542842
 20
3244227
  0
VERTEX
  8
RA_6881
 62
     7
 10
542857
 20
3244203
  0
VERTEX
  8
RA_6881
 62
     7
 10
542884
 20
3244182
  0
VERTEX
  8
RA_6881
 62
     7
 10
542943
 20
3244135
  0
VERTEX
  8
RA_6881
 62
     7
 10
542977
 20
3244094
  0
SEQEND
  0
POLYLINE
  8
RA_6881
  6
CONTINUOUS
 62
     7
 66
     1
  0
VERTEX
  8
RA_6881
 62
     7
 10
548169
 20
3248191
  0
VERTEX
  8
RA_6881
 62
     7
 10
548233
 20
3248178
  0
VERTEX
  8
RA_6881
 62
     7
 10
548274
 20
3248170
  0
VERTEX
  8
RA_6881
 62
     7
 10
548314
 20
3248164
  0
VERTEX
  8
RA_6881
 62
     7
 10
548366
 20
3248143
  0
VERTEX
  8
RA_6881
 62
     7
 10
548406
 20
3248122
  0
VERTEX
  8
RA_6881
 62
     7
 10
548437
 20
3248100
  0
VERTEX
  8
RA_6881
 62
     7
 10
548468
 20
3248088
  0
VERTEX
  8
RA_6881
 62
     7
 10
548503
 20
3248083
  0
VERTEX
  8
RA_6881
 62
     7
 10
548510
 20
3248083
  0
VERTEX
  8
RA_6881
 62
     7
 10
548558
 20
3248081
  0
VERTEX
  8
RA_6881
 62
     7
 10
548595
 20
3248092
  0
VERTEX
  8
RA_6881
 62
     7
 10
548616
 20
3248101
  0
VERTEX
  8
RA_6881
 62
     7
 10
548627
 20
3248130
  0
VERTEX
  8
RA_6881
 62
     7
 10
548645
 20
3248163
  0
VERTEX
  8
RA_6881
 62
     7
 10
548669
 20
3248175
  0
VERTEX
  8
RA_6881
 62
     7
 10
548703
 20
3248178
  0
VERTEX
  8
RA_6881
 62
     7
 10
548744
 20
3248190
  0
VERTEX
  8
RA_6881
 62
     7
 10
548771
 20
3248216
  0
VERTEX
  8
RA_6881
 62
     7
 10
548808
 20
3248246
  0
VERTEX
  8
RA_6881
 62
     7
 10
548836
 20
3248283
  0
SEQEND
  0
POLYLINE
  8
RA_6881
  6
CONTINUOUS
 62
     7
 66
     1
  0
VERTEX
  8
RA_6881
 62
     7
 10
542977
 20
3244094
  0
VERTEX
  8
RA_6881
 62
     7
 10
543044
 20
3244012
  0
VERTEX
  8
RA_6881
 62
     7
 10
543073
 20
3243948
  0
SEQEND
  0
POLYLINE
  8
RA_6881
  6
CONTINUOUS
 62
     7
 66
     1
  0
VERTEX
  8
RA_6881
 62
     7
 10
561509
 20
3256739
  0
VERTEX
  8
RA_6881
 62
     7
 10
561530
 20
3256743
  0
VERTEX
  8
RA_6881
 62
     7
 10
561553
 20
3256744
  0
VERTEX
  8
RA_6881
 62
     7
 10
561566
 20
3256740
  0
SEQEND
  0
POLYLINE
  8
RA_6881
  6
CONTINUOUS
 62
     7
 66
     1
  0
VERTEX
  8
RA_6881
 62
     7
 10
541224
 20
3243706
  0
VERTEX
  8
RA_6881
 62
     7
 10
541173
 20
3243745
  0
VERTEX
  8
RA_6881
 62
     7
 10
541149
 20
3243758
  0
VERTEX
  8
RA_6881
 62
     7
 10
541140
 20
3243749
  0
VERTEX
  8
RA_6881
 62
     7
 10
541130
 20
3243633
  0
VERTEX
  8
RA_6881
 62
     7
 10
541126
 20
3243549
  0
VERTEX
  8
RA_6881
 62
     7
 10
541126
 20
3243411
  0
VERTEX
  8
RA_6881
 62
     7
 10
541129
 20
3243379
  0
VERTEX
  8
RA_6881
 62
     7
 10
541135
 20
3243334
  0
SEQEND
  0
POLYLINE
  8
RA_6881
  6
CONTINUOUS
 62
     7
 66
     1
  0
VERTEX
  8
RA_6881
 62
     7
 10
543073
 20
3243948
  0
VERTEX
  8
RA_6881
 62
     7
 10
543103
 20
3243905
  0
VERTEX
  8
RA_6881
 62
     7
 10
543142
 20
3243852
  0
SEQEND
  0
POLYLINE
  8
RA_6881
  6
CONTINUOUS
 62
     7
 66
     1
  0
VERTEX
  8
RA_6881
 62
     7
 10
536819
 20
3239817
  0
VERTEX
  8
RA_6881
 62
     7
 10
536833
 20
3239873
  0
VERTEX
  8
RA_6881
 62
     7
 10
536846
 20
3239939
  0
VERTEX
  8
RA_6881
 62
     7
 10
536856
 20
3240002
  0
VERTEX
  8
RA_6881
 62
     7
 10
536888
 20
3240041
  0
VERTEX
  8
RA_6881
 62
     7
 10
536931
 20
3240073
  0
VERTEX
  8
RA_6881
 62
     7
 10
536981
 20
3240092
  0
VERTEX
  8
RA_6881
 62
     7
 10
537138
 20
3240112
  0
VERTEX
  8
RA_6881
 62
     7
 10
537292
 20
3240147
  0
VERTEX
  8
RA_6881
 62
     7
 10
537405
 20
3240170
  0
VERTEX
  8
RA_6881
 62
     7
 10
537483
 20
3240173
  0
VERTEX
  8
RA_6881
 62
     7
 10
537572
 20
3240188
  0
VERTEX
  8
RA_6881
 62
     7
 10
537615
 20
3240184
  0
VERTEX
  8
RA_6881
 62
     7
 10
537667
 20
3240188
  0
VERTEX
  8
RA_6881
 62
     7
 10
537672
 20
3240178
  0
VERTEX
  8
RA_6881
 62
     7
 10
537549
 20
3240128
  0
VERTEX
  8
RA_6881
 62
     7
 10
537450
 20
3240080
  0
VERTEX
  8
RA_6881
 62
     7
 10
537363
 20
3240053
  0
VERTEX
  8
RA_6881
 62
     7
 10
537270
 20
3240026
  0
VERTEX
  8
RA_6881
 62
     7
 10
537154
 20
3239992
  0
VERTEX
  8
RA_6881
 62
     7
 10
537053
 20
3239966
  0
VERTEX
  8
RA_6881
 62
     7
 10
537003
 20
3239940
  0
VERTEX
  8
RA_6881
 62
     7
 10
536950
 20
3239904
  0
VERTEX
  8
RA_6881
 62
     7
 10
536906
 20
3239876
  0
VERTEX
  8
RA_6881
 62
     7
 10
536868
 20
3239849
  0
VERTEX
  8
RA_6881
 62
     7
 10
536819
 20
3239817
  0
SEQEND
  0
POLYLINE
  8
RA_6881
  6
CONTINUOUS
 62
     7
 66
     1
  0
VERTEX
  8
RA_6881
 62
     7
 10
562316
 20
3256415
  0
VERTEX
  8
RA_6881
 62
     7
 10
562277
 20
3256414
  0
VERTEX
  8
RA_6881
 62
     7
 10
562246
 20
3256405
  0
VERTEX
  8
RA_6881
 62
     7
 10
562203
 20
3256401
  0
VERTEX
  8
RA_6881
 62
     7
 10
562167
 20
3256393
  0
VERTEX
  8
RA_6881
 62
     7
 10
562113
 20
3256395
  0
VERTEX
  8
RA_6881
 62
     7
 10
562037
 20
3256399
  0
VERTEX
  8
RA_6881
 62
     7
 10
561992
 20
3256405
  0
VERTEX
  8
RA_6881
 62
     7
 10
561915
 20
3256401
  0
VERTEX
  8
RA_6881
 62
     7
 10
561854
 20
3256395
  0
VERTEX
  8
RA_6881
 62
     7
 10
561830
 20
3256399
  0
VERTEX
  8
RA_6881
 62
     7
 10
561788
 20
3256420
  0
VERTEX
  8
RA_6881
 62
     7
 10
561778
 20
3256424
  0
VERTEX
  8
RA_6881
 62
     7
 10
561722
 20
3256443
  0
VERTEX
  8
RA_6881
 62
     7
 10
561683
 20
3256467
  0
VERTEX
  8
RA_6881
 62
     7
 10
561625
 20
3256530
  0
VERTEX
  8
RA_6881
 62
     7
 10
561602
 20
3256573
  0
VERTEX
  8
RA_6881
 62
     7
 10
561603
 20
3256598
  0
VERTEX
  8
RA_6881
 62
     7
 10
561601
 20
3256626
  0
VERTEX
  8
RA_6881
 62
     7
 10
561614
 20
3256640
  0
VERTEX
  8
RA_6881
 62
     7
 10
561630
 20
3256645
  0
VERTEX
  8
RA_6881
 62
     7
 10
561716
 20
3256633
  0
VERTEX
  8
RA_6881
 62
     7
 10
561789
 20
3256618
  0
VERTEX
  8
RA_6881
 62
     7
 10
561870
 20
3256601
  0
VERTEX
  8
RA_6881
 62
     7
 10
561873
 20
3256599
  0
VERTEX
  8
RA_6881
 62
     7
 10
561914
 20
3256577
  0
VERTEX
  8
RA_6881
 62
     7
 10
561952
 20
3256565
  0
VERTEX
  8
RA_6881
 62
     7
 10
561981
 20
3256567
  0
VERTEX
  8
RA_6881
 62
     7
 10
562016
 20
3256563
  0
VERTEX
  8
RA_6881
 62
     7
 10
562047
 20
3256550
  0
VERTEX
  8
RA_6881
 62
     7
 10
562094
 20
3256533
  0
VERTEX
  8
RA_6881
 62
     7
 10
562129
 20
3256517
  0
VERTEX
  8
RA_6881
 62
     7
 10
562190
 20
3256511
  0
VERTEX
  8
RA_6881
 62
     7
 10
562254
 20
3256514
  0
VERTEX
  8
RA_6881
 62
     7
 10
562288
 20
3256516
  0
VERTEX
  8
RA_6881
 62
     7
 10
562315
 20
3256505
  0
VERTEX
  8
RA_6881
 62
     7
 10
562346
 20
3256505
  0
VERTEX
  8
RA_6881
 62
     7
 10
562350
 20
3256507
  0
VERTEX
  8
RA_6881
 62
     7
 10
562387
 20
3256518
  0
VERTEX
  8
RA_6881
 62
     7
 10
562458
 20
3256549
  0
VERTEX
  8
RA_6881
 62
     7
 10
562468
 20
3256553
  0
VERTEX
  8
RA_6881
 62
     7
 10
562506
 20
3256587
  0
VERTEX
  8
RA_6881
 62
     7
 10
562533
 20
3256599
  0
VERTEX
  8
RA_6881
 62
     7
 10
562573
 20
3256604
  0
VERTEX
  8
RA_6881
 62
     7
 10
562612
 20
3256603
  0
VERTEX
  8
RA_6881
 62
     7
 10
562663
 20
3256599
  0
VERTEX
  8
RA_6881
 62
     7
 10
562624
 20
3256568
  0
VERTEX
  8
RA_6881
 62
     7
 10
562579
 20
3256545
  0
VERTEX
  8
RA_6881
 62
     7
 10
562536
 20
3256526
  0
VERTEX
  8
RA_6881
 62
     7
 10
562497
 20
3256503
  0
VERTEX
  8
RA_6881
 62
     7
 10
562492
 20
3256501
  0
VERTEX
  8
RA_6881
 62
     7
 10
562450
 20
3256474
  0
VERTEX
  8
RA_6881
 62
     7
 10
562402
 20
3256447
  0
VERTEX
  8
RA_6881
 62
     7
 10
562365
 20
3256430
  0
VERTEX
  8
RA_6881
 62
     7
 10
562321
 20
3256416
  0
VERTEX
  8
RA_6881
 62
     7
 10
562316
 20
3256415
  0
SEQEND
  0
POLYLINE
  8
RA_6881
  6
CONTINUOUS
 62
     7
 66
     1
  0
VERTEX
  8
RA_6881
 62
     7
 10
561483
 20
3256710
  0
VERTEX
  8
RA_6881
 62
     7
 10
561491
 20
3256731
  0
VERTEX
  8
RA_6881
 62
     7
 10
561509
 20
3256739
  0
SEQEND
  0
POLYLINE
  8
RA_6881
  6
CONTINUOUS
 62
     7
 66
     1
  0
VERTEX
  8
RA_6881
 62
     7
 10
549739
 20
3249335
  0
VERTEX
  8
RA_6881
 62
     7
 10
549811
 20
3249331
  0
VERTEX
  8
RA_6881
 62
     7
 10
549859
 20
3249343
  0
VERTEX
  8
RA_6881
 62
     7
 10
549957
 20
3249381
  0
VERTEX
  8
RA_6881
 62
     7
 10
550009
 20
3249396
  0
VERTEX
  8
RA_6881
 62
     7
 10
550078
 20
3249401
  0
VERTEX
  8
RA_6881
 62
     7
 10
550118
 20
3249391
  0
VERTEX
  8
RA_6881
 62
     7
 10
550108
 20
3249369
  0
VERTEX
  8
RA_6881
 62
     7
 10
550033
 20
3249311
  0
VERTEX
  8
RA_6881
 62
     7
 10
549970
 20
3249275
  0
VERTEX
  8
RA_6881
 62
     7
 10
549880
 20
3249226
  0
VERTEX
  8
RA_6881
 62
     7
 10
549810
 20
3249186
  0
VERTEX
  8
RA_6881
 62
     7
 10
549750
 20
3249150
  0
VERTEX
  8
RA_6881
 62
     7
 10
549685
 20
3249106
  0
VERTEX
  8
RA_6881
 62
     7
 10
549635
 20
3249056
  0
VERTEX
  8
RA_6881
 62
     7
 10
549591
 20
3249008
  0
VERTEX
  8
RA_6881
 62
     7
 10
549572
 20
3248975
  0
VERTEX
  8
RA_6881
 62
     7
 10
549563
 20
3248912
  0
VERTEX
  8
RA_6881
 62
     7
 10
549557
 20
3248818
  0
VERTEX
  8
RA_6881
 62
     7
 10
549541
 20
3248741
  0
VERTEX
  8
RA_6881
 62
     7
 10
549524
 20
3248703
  0
VERTEX
  8
RA_6881
 62
     7
 10
549476
 20
3248639
  0
VERTEX
  8
RA_6881
 62
     7
 10
549449
 20
3248589
  0
VERTEX
  8
RA_6881
 62
     7
 10
549426
 20
3248549
  0
VERTEX
  8
RA_6881
 62
     7
 10
549393
 20
3248512
  0
VERTEX
  8
RA_6881
 62
     7
 10
549307
 20
3248448
  0
VERTEX
  8
RA_6881
 62
     7
 10
549259
 20
3248435
  0
VERTEX
  8
RA_6881
 62
     7
 10
549220
 20
3248411
  0
VERTEX
  8
RA_6881
 62
     7
 10
549180
 20
3248381
  0
VERTEX
  8
RA_6881
 62
     7
 10
549144
 20
3248381
  0
VERTEX
  8
RA_6881
 62
     7
 10
549113
 20
3248385
  0
VERTEX
  8
RA_6881
 62
     7
 10
549086
 20
3248386
  0
VERTEX
  8
RA_6881
 62
     7
 10
549057
 20
3248387
  0
SEQEND
  0
POLYLINE
  8
RA_6881
  6
CONTINUOUS
 62
     7
 66
     1
  0
VERTEX
  8
RA_6881
 62
     7
 10
543142
 20
3243852
  0
VERTEX
  8
RA_6881
 62
     7
 10
543206
 20
3243803
  0
VERTEX
  8
RA_6881
 62
     7
 10
543232
 20
3243792
  0
VERTEX
  8
RA_6881
 62
     7
 10
543293
 20
3243774
  0
SEQEND
  0
POLYLINE
  8
RA_6881
  6
CONTINUOUS
 62
     7
 66
     1
  0
VERTEX
  8
RA_6881
 62
     7
 10
553845
 20
3253045
  0
VERTEX
  8
RA_6881
 62
     7
 10
553811
 20
3253013
  0
VERTEX
  8
RA_6881
 62
     7
 10
553790
 20
3252993
  0
VERTEX
  8
RA_6881
 62
     7
 10
553770
 20
3252970
  0
VERTEX
  8
RA_6881
 62
     7
 10
553744
 20
3252927
  0
VERTEX
  8
RA_6881
 62
     7
 10
553738
 20
3252896
  0
VERTEX
  8
RA_6881
 62
     7
 10
553732
 20
3252861
  0
VERTEX
  8
RA_6881
 62
     7
 10
553744
 20
3252837
  0
VERTEX
  8
RA_6881
 62
     7
 10
553761
 20
3252839
  0
VERTEX
  8
RA_6881
 62
     7
 10
553859
 20
3252896
  0
VERTEX
  8
RA_6881
 62
     7
 10
553892
 20
3252916
  0
VERTEX
  8
RA_6881
 62
     7
 10
553911
 20
3252938
  0
VERTEX
  8
RA_6881
 62
     7
 10
553932
 20
3252964
  0
VERTEX
  8
RA_6881
 62
     7
 10
553949
 20
3252985
  0
VERTEX
  8
RA_6881
 62
     7
 10
553963
 20
3253001
  0
VERTEX
  8
RA_6881
 62
     7
 10
553967
 20
3253019
  0
VERTEX
  8
RA_6881
 62
     7
 10
553945
 20
3253047
  0
VERTEX
  8
RA_6881
 62
     7
 10
553930
 20
3253069
  0
VERTEX
  8
RA_6881
 62
     7
 10
553926
 20
3253089
  0
VERTEX
  8
RA_6881
 62
     7
 10
553924
 20
3253111
  0
VERTEX
  8
RA_6881
 62
     7
 10
553924
 20
3253196
  0
VERTEX
  8
RA_6881
 62
     7
 10
553917
 20
3253247
  0
VERTEX
  8
RA_6881
 62
     7
 10
553925
 20
3253277
  0
VERTEX
  8
RA_6881
 62
     7
 10
553948
 20
3253313
  0
VERTEX
  8
RA_6881
 62
     7
 10
553954
 20
3253338
  0
VERTEX
  8
RA_6881
 62
     7
 10
553946
 20
3253362
  0
VERTEX
  8
RA_6881
 62
     7
 10
553935
 20
3253381
  0
VERTEX
  8
RA_6881
 62
     7
 10
553912
 20
3253417
  0
VERTEX
  8
RA_6881
 62
     7
 10
553896
 20
3253453
  0
VERTEX
  8
RA_6881
 62
     7
 10
553875
 20
3253469
  0
VERTEX
  8
RA_6881
 62
     7
 10
553842
 20
3253467
  0
VERTEX
  8
RA_6881
 62
     7
 10
553815
 20
3253444
  0
VERTEX
  8
RA_6881
 62
     7
 10
553791
 20
3253407
  0
VERTEX
  8
RA_6881
 62
     7
 10
553772
 20
3253321
  0
VERTEX
  8
RA_6881
 62
     7
 10
553775
 20
3253173
  0
VERTEX
  8
RA_6881
 62
     7
 10
553790
 20
3253144
  0
VERTEX
  8
RA_6881
 62
     7
 10
553818
 20
3253106
  0
VERTEX
  8
RA_6881
 62
     7
 10
553848
 20
3253083
  0
VERTEX
  8
RA_6881
 62
     7
 10
553858
 20
3253071
  0
VERTEX
  8
RA_6881
 62
     7
 10
553858
 20
3253063
  0
VERTEX
  8
RA_6881
 62
     7
 10
553845
 20
3253045
  0
SEQEND
  0
POLYLINE
  8
RA_6881
  6
CONTINUOUS
 62
     7
 66
     1
  0
VERTEX
  8
RA_6881
 62
     7
 10
546075
 20
3245668
  0
VERTEX
  8
RA_6881
 62
     7
 10
546124
 20
3245654
  0
VERTEX
  8
RA_6881
 62
     7
 10
546158
 20
3245662
  0
VERTEX
  8
RA_6881
 62
     7
 10
546205
 20
3245680
  0
VERTEX
  8
RA_6881
 62
     7
 10
546225
 20
3245701
  0
VERTEX
  8
RA_6881
 62
     7
 10
546308
 20
3245787
  0
VERTEX
  8
RA_6881
 62
     7
 10
546371
 20
3245890
  0
VERTEX
  8
RA_6881
 62
     7
 10
546382
 20
3245942
  0
VERTEX
  8
RA_6881
 62
     7
 10
546386
 20
3245991
  0
VERTEX
  8
RA_6881
 62
     7
 10
546389
 20
3246034
  0
VERTEX
  8
RA_6881
 62
     7
 10
546396
 20
3246108
  0
VERTEX
  8
RA_6881
 62
     7
 10
546399
 20
3246266
  0
VERTEX
  8
RA_6881
 62
     7
 10
546399
 20
3246328
  0
VERTEX
  8
RA_6881
 62
     7
 10
546376
 20
3246356
  0
VERTEX
  8
RA_6881
 62
     7
 10
546349
 20
3246349
  0
VERTEX
  8
RA_6881
 62
     7
 10
546326
 20
3246337
  0
VERTEX
  8
RA_6881
 62
     7
 10
546299
 20
3246209
  0
VERTEX
  8
RA_6881
 62
     7
 10
546256
 20
3246045
  0
VERTEX
  8
RA_6881
 62
     7
 10
546226
 20
3245958
  0
VERTEX
  8
RA_6881
 62
     7
 10
546197
 20
3245913
  0
VERTEX
  8
RA_6881
 62
     7
 10
546173
 20
3245882
  0
VERTEX
  8
RA_6881
 62
     7
 10
546163
 20
3245862
  0
VERTEX
  8
RA_6881
 62
     7
 10
546143
 20
3245822
  0
VERTEX
  8
RA_6881
 62
     7
 10
546126
 20
3245790
  0
SEQEND
  0
POLYLINE
  8
RA_6881
  6
CONTINUOUS
 62
     7
 66
     1
  0
VERTEX
  8
RA_6881
 62
     7
 10
541626
 20
3243939
  0
VERTEX
  8
RA_6881
 62
     7
 10
541646
 20
3243939
  0
VERTEX
  8
RA_6881
 62
     7
 10
541691
 20
3243964
  0
VERTEX
  8
RA_6881
 62
     7
 10
541703
 20
3243967
  0
VERTEX
  8
RA_6881
 62
     7
 10
541815
 20
3244001
  0
VERTEX
  8
RA_6881
 62
     7
 10
541887
 20
3244037
  0
VERTEX
  8
RA_6881
 62
     7
 10
541908
 20
3244055
  0
VERTEX
  8
RA_6881
 62
     7
 10
541928
 20
3244066
  0
VERTEX
  8
RA_6881
 62
     7
 10
541956
 20
3244068
  0
VERTEX
  8
RA_6881
 62
     7
 10
542031
 20
3244085
  0
VERTEX
  8
RA_6881
 62
     7
 10
542084
 20
3244088
  0
VERTEX
  8
RA_6881
 62
     7
 10
542156
 20
3244093
  0
VERTEX
  8
RA_6881
 62
     7
 10
542175
 20
3244087
  0
VERTEX
  8
RA_6881
 62
     7
 10
542100
 20
3244052
  0
VERTEX
  8
RA_6881
 62
     7
 10
541974
 20
3244013
  0
VERTEX
  8
RA_6881
 62
     7
 10
541935
 20
3243994
  0
VERTEX
  8
RA_6881
 62
     7
 10
541860
 20
3243952
  0
VERTEX
  8
RA_6881
 62
     7
 10
541809
 20
3243931
  0
VERTEX
  8
RA_6881
 62
     7
 10
541763
 20
3243917
  0
VERTEX
  8
RA_6881
 62
     7
 10
541724
 20
3243908
  0
VERTEX
  8
RA_6881
 62
     7
 10
541672
 20
3243903
  0
VERTEX
  8
RA_6881
 62
     7
 10
541646
 20
3243914
  0
VERTEX
  8
RA_6881
 62
     7
 10
541632
 20
3243922
  0
VERTEX
  8
RA_6881
 62
     7
 10
541626
 20
3243939
  0
SEQEND
  0
POLYLINE
  8
RA_6881
  6
CONTINUOUS
 62
     7
 66
     1
  0
VERTEX
  8
RA_6881
 62
     7
 10
547613
 20
3248286
  0
VERTEX
  8
RA_6881
 62
     7
 10
547658
 20
3248270
  0
VERTEX
  8
RA_6881
 62
     7
 10
547706
 20
3248253
  0
VERTEX
  8
RA_6881
 62
     7
 10
547719
 20
3248248
  0
VERTEX
  8
RA_6881
 62
     7
 10
547777
 20
3248240
  0
SEQEND
  0
POLYLINE
  8
RA_6881
  6
CONTINUOUS
 62
     7
 66
     1
  0
VERTEX
  8
RA_6881
 62
     7
 10
547316
 20
3248453
  0
VERTEX
  8
RA_6881
 62
     7
 10
547406
 20
3248500
  0
VERTEX
  8
RA_6881
 62
     7
 10
547450
 20
3248514
  0
VERTEX
  8
RA_6881
 62
     7
 10
547514
 20
3248510
  0
VERTEX
  8
RA_6881
 62
     7
 10
547551
 20
3248498
  0
VERTEX
  8
RA_6881
 62
     7
 10
547614
 20
3248489
  0
VERTEX
  8
RA_6881
 62
     7
 10
547643
 20
3248480
  0
VERTEX
  8
RA_6881
 62
     7
 10
547702
 20
3248463
  0
VERTEX
  8
RA_6881
 62
     7
 10
547838
 20
3248418
  0
VERTEX
  8
RA_6881
 62
     7
 10
547925
 20
3248394
  0
VERTEX
  8
RA_6881
 62
     7
 10
547972
 20
3248388
  0
VERTEX
  8
RA_6881
 62
     7
 10
548025
 20
3248388
  0
VERTEX
  8
RA_6881
 62
     7
 10
548060
 20
3248381
  0
VERTEX
  8
RA_6881
 62
     7
 10
548102
 20
3248375
  0
VERTEX
  8
RA_6881
 62
     7
 10
548173
 20
3248355
  0
VERTEX
  8
RA_6881
 62
     7
 10
548231
 20
3248317
  0
VERTEX
  8
RA_6881
 62
     7
 10
548249
 20
3248308
  0
VERTEX
  8
RA_6881
 62
     7
 10
548307
 20
3248321
  0
VERTEX
  8
RA_6881
 62
     7
 10
548434
 20
3248350
  0
VERTEX
  8
RA_6881
 62
     7
 10
548474
 20
3248345
  0
VERTEX
  8
RA_6881
 62
     7
 10
548530
 20
3248342
  0
VERTEX
  8
RA_6881
 62
     7
 10
548592
 20
3248357
  0
VERTEX
  8
RA_6881
 62
     7
 10
548611
 20
3248363
  0
VERTEX
  8
RA_6881
 62
     7
 10
548696
 20
3248400
  0
VERTEX
  8
RA_6881
 62
     7
 10
548751
 20
3248412
  0
VERTEX
  8
RA_6881
 62
     7
 10
548862
 20
3248456
  0
VERTEX
  8
RA_6881
 62
     7
 10
548924
 20
3248477
  0
VERTEX
  8
RA_6881
 62
     7
 10
548954
 20
3248505
  0
VERTEX
  8
RA_6881
 62
     7
 10
548963
 20
3248532
  0
VERTEX
  8
RA_6881
 62
     7
 10
548950
 20
3248555
  0
VERTEX
  8
RA_6881
 62
     7
 10
548933
 20
3248587
  0
VERTEX
  8
RA_6881
 62
     7
 10
548889
 20
3248601
  0
VERTEX
  8
RA_6881
 62
     7
 10
548822
 20
3248589
  0
VERTEX
  8
RA_6881
 62
     7
 10
548767
 20
3248580
  0
VERTEX
  8
RA_6881
 62
     7
 10
548721
 20
3248566
  0
VERTEX
  8
RA_6881
 62
     7
 10
548695
 20
3248583
  0
VERTEX
  8
RA_6881
 62
     7
 10
548695
 20
3248601
  0
VERTEX
  8
RA_6881
 62
     7
 10
548708
 20
3248615
  0
VERTEX
  8
RA_6881
 62
     7
 10
548749
 20
3248650
  0
VERTEX
  8
RA_6881
 62
     7
 10
548781
 20
3248671
  0
VERTEX
  8
RA_6881
 62
     7
 10
548822
 20
3248680
  0
VERTEX
  8
RA_6881
 62
     7
 10
548855
 20
3248682
  0
VERTEX
  8
RA_6881
 62
     7
 10
548899
 20
3248686
  0
VERTEX
  8
RA_6881
 62
     7
 10
548935
 20
3248683
  0
VERTEX
  8
RA_6881
 62
     7
 10
548965
 20
3248687
  0
VERTEX
  8
RA_6881
 62
     7
 10
549001
 20
3248705
  0
VERTEX
  8
RA_6881
 62
     7
 10
549042
 20
3248724
  0
VERTEX
  8
RA_6881
 62
     7
 10
549080
 20
3248740
  0
VERTEX
  8
RA_6881
 62
     7
 10
549114
 20
3248761
  0
VERTEX
  8
RA_6881
 62
     7
 10
549158
 20
3248783
  0
VERTEX
  8
RA_6881
 62
     7
 10
549230
 20
3248804
  0
VERTEX
  8
RA_6881
 62
     7
 10
549283
 20
3248819
  0
VERTEX
  8
RA_6881
 62
     7
 10
549333
 20
3248838
  0
VERTEX
  8
RA_6881
 62
     7
 10
549355
 20
3248860
  0
VERTEX
  8
RA_6881
 62
     7
 10
549360
 20
3248854
  0
VERTEX
  8
RA_6881
 62
     7
 10
549359
 20
3248830
  0
VERTEX
  8
RA_6881
 62
     7
 10
549361
 20
3248800
  0
VERTEX
  8
RA_6881
 62
     7
 10
549365
 20
3248722
  0
SEQEND
  0
POLYLINE
  8
RA_6881
  6
CONTINUOUS
 62
     7
 66
     1
  0
VERTEX
  8
RA_6881
 62
     7
 10
535580
 20
3236360
  0
VERTEX
  8
RA_6881
 62
     7
 10
535521
 20
3236353
  0
VERTEX
  8
RA_6881
 62
     7
 10
535496
 20
3236366
  0
VERTEX
  8
RA_6881
 62
     7
 10
535453
 20
3236372
  0
VERTEX
  8
RA_6881
 62
     7
 10
535441
 20
3236367
  0
VERTEX
  8
RA_6881
 62
     7
 10
535420
 20
3236358
  0
VERTEX
  8
RA_6881
 62
     7
 10
535384
 20
3236353
  0
VERTEX
  8
RA_6881
 62
     7
 10
535339
 20
3236362
  0
VERTEX
  8
RA_6881
 62
     7
 10
535218
 20
3236380
  0
VERTEX
  8
RA_6881
 62
     7
 10
535167
 20
3236380
  0
VERTEX
  8
RA_6881
 62
     7
 10
535143
 20
3236381
  0
VERTEX
  8
RA_6881
 62
     7
 10
535098
 20
3236365
  0
VERTEX
  8
RA_6881
 62
     7
 10
535056
 20
3236369
  0
VERTEX
  8
RA_6881
 62
     7
 10
535003
 20
3236366
  0
VERTEX
  8
RA_6881
 62
     7
 10
534978
 20
3236372
  0
VERTEX
  8
RA_6881
 62
     7
 10
534948
 20
3236384
  0
SEQEND
  0
POLYLINE
  8
RA_6881
  6
CONTINUOUS
 62
     7
 66
     1
  0
VERTEX
  8
RA_6881
 62
     7
 10
544198
 20
3243633
  0
VERTEX
  8
RA_6881
 62
     7
 10
544224
 20
3243655
  0
VERTEX
  8
RA_6881
 62
     7
 10
544256
 20
3243675
  0
VERTEX
  8
RA_6881
 62
     7
 10
544286
 20
3243682
  0
VERTEX
  8
RA_6881
 62
     7
 10
544317
 20
3243674
  0
VERTEX
  8
RA_6881
 62
     7
 10
544354
 20
3243667
  0
VERTEX
  8
RA_6881
 62
     7
 10
544384
 20
3243672
  0
VERTEX
  8
RA_6881
 62
     7
 10
544414
 20
3243686
  0
VERTEX
  8
RA_6881
 62
     7
 10
544434
 20
3243712
  0
VERTEX
  8
RA_6881
 62
     7
 10
544446
 20
3243736
  0
VERTEX
  8
RA_6881
 62
     7
 10
544465
 20
3243756
  0
VERTEX
  8
RA_6881
 62
     7
 10
544493
 20
3243769
  0
VERTEX
  8
RA_6881
 62
     7
 10
544510
 20
3243778
  0
VERTEX
  8
RA_6881
 62
     7
 10
544519
 20
3243800
  0
VERTEX
  8
RA_6881
 62
     7
 10
544550
 20
3243826
  0
VERTEX
  8
RA_6881
 62
     7
 10
544580
 20
3243850
  0
VERTEX
  8
RA_6881
 62
     7
 10
544613
 20
3243872
  0
VERTEX
  8
RA_6881
 62
     7
 10
544644
 20
3243896
  0
VERTEX
  8
RA_6881
 62
     7
 10
544677
 20
3243933
  0
VERTEX
  8
RA_6881
 62
     7
 10
544725
 20
3243965
  0
VERTEX
  8
RA_6881
 62
     7
 10
544765
 20
3243996
  0
VERTEX
  8
RA_6881
 62
     7
 10
544810
 20
3244018
  0
VERTEX
  8
RA_6881
 62
     7
 10
544842
 20
3244025
  0
VERTEX
  8
RA_6881
 62
     7
 10
544862
 20
3244044
  0
VERTEX
  8
RA_6881
 62
     7
 10
544870
 20
3244055
  0
VERTEX
  8
RA_6881
 62
     7
 10
544886
 20
3244082
  0
VERTEX
  8
RA_6881
 62
     7
 10
544938
 20
3244148
  0
VERTEX
  8
RA_6881
 62
     7
 10
544998
 20
3244228
  0
VERTEX
  8
RA_6881
 62
     7
 10
545024
 20
3244245
  0
VERTEX
  8
RA_6881
 62
     7
 10
545053
 20
3244256
  0
VERTEX
  8
RA_6881
 62
     7
 10
545079
 20
3244258
  0
VERTEX
  8
RA_6881
 62
     7
 10
545089
 20
3244238
  0
VERTEX
  8
RA_6881
 62
     7
 10
545065
 20
3244204
  0
VERTEX
  8
RA_6881
 62
     7
 10
545006
 20
3244139
  0
VERTEX
  8
RA_6881
 62
     7
 10
544971
 20
3244067
  0
VERTEX
  8
RA_6881
 62
     7
 10
544963
 20
3244049
  0
VERTEX
  8
RA_6881
 62
     7
 10
544839
 20
3243930
  0
VERTEX
  8
RA_6881
 62
     7
 10
544691
 20
3243813
  0
VERTEX
  8
RA_6881
 62
     7
 10
544613
 20
3243750
  0
VERTEX
  8
RA_6881
 62
     7
 10
544570
 20
3243734
  0
VERTEX
  8
RA_6881
 62
     7
 10
544505
 20
3243702
  0
VERTEX
  8
RA_6881
 62
     7
 10
544466
 20
3243660
  0
VERTEX
  8
RA_6881
 62
     7
 10
544388
 20
3243616
  0
VERTEX
  8
RA_6881
 62
     7
 10
544350
 20
3243619
  0
VERTEX
  8
RA_6881
 62
     7
 10
544303
 20
3243618
  0
VERTEX
  8
RA_6881
 62
     7
 10
544222
 20
3243579
  0
VERTEX
  8
RA_6881
 62
     7
 10
544058
 20
3243516
  0
VERTEX
  8
RA_6881
 62
     7
 10
543989
 20
3243518
  0
VERTEX
  8
RA_6881
 62
     7
 10
543972
 20
3243547
  0
VERTEX
  8
RA_6881
 62
     7
 10
543991
 20
3243564
  0
VERTEX
  8
RA_6881
 62
     7
 10
544064
 20
3243590
  0
VERTEX
  8
RA_6881
 62
     7
 10
544143
 20
3243617
  0
VERTEX
  8
RA_6881
 62
     7
 10
544198
 20
3243633
  0
SEQEND
  0
POLYLINE
  8
RA_6881
  6
CONTINUOUS
 62
     7
 66
     1
  0
VERTEX
  8
RA_6881
 62
     7
 10
549057
 20
3248387
  0
VERTEX
  8
RA_6881
 62
     7
 10
549103
 20
3248418
  0
VERTEX
  8
RA_6881
 62
     7
 10
549184
 20
3248472
  0
VERTEX
  8
RA_6881
 62
     7
 10
549234
 20
3248499
  0
VERTEX
  8
RA_6881
 62
     7
 10
549267
 20
3248523
  0
VERTEX
  8
RA_6881
 62
     7
 10
549284
 20
3248543
  0
VERTEX
  8
RA_6881
 62
     7
 10
549303
 20
3248561
  0
VERTEX
  8
RA_6881
 62
     7
 10
549315
 20
3248574
  0
VERTEX
  8
RA_6881
 62
     7
 10
549332
 20
3248594
  0
VERTEX
  8
RA_6881
 62
     7
 10
549349
 20
3248616
  0
VERTEX
  8
RA_6881
 62
     7
 10
549359
 20
3248629
  0
VERTEX
  8
RA_6881
 62
     7
 10
549369
 20
3248644
  0
VERTEX
  8
RA_6881
 62
     7
 10
549369
 20
3248657
  0
VERTEX
  8
RA_6881
 62
     7
 10
549371
 20
3248671
  0
VERTEX
  8
RA_6881
 62
     7
 10
549379
 20
3248693
  0
VERTEX
  8
RA_6881
 62
     7
 10
549394
 20
3248722
  0
VERTEX
  8
RA_6881
 62
     7
 10
549412
 20
3248756
  0
VERTEX
  8
RA_6881
 62
     7
 10
549438
 20
3248780
  0
VERTEX
  8
RA_6881
 62
     7
 10
549462
 20
3248802
  0
VERTEX
  8
RA_6881
 62
     7
 10
549473
 20
3248818
  0
VERTEX
  8
RA_6881
 62
     7
 10
549479
 20
3248855
  0
VERTEX
  8
RA_6881
 62
     7
 10
549490
 20
3248876
  0
VERTEX
  8
RA_6881
 62
     7
 10
549504
 20
3248906
  0
VERTEX
  8
RA_6881
 62
     7
 10
549507
 20
3248912
  0
VERTEX
  8
RA_6881
 62
     7
 10
549513
 20
3248929
  0
VERTEX
  8
RA_6881
 62
     7
 10
549517
 20
3248948
  0
VERTEX
  8
RA_6881
 62
     7
 10
549520
 20
3248990
  0
VERTEX
  8
RA_6881
 62
     7
 10
549525
 20
3249024
  0
VERTEX
  8
RA_6881
 62
     7
 10
549531
 20
3249059
  0
VERTEX
  8
RA_6881
 62
     7
 10
549541
 20
3249096
  0
VERTEX
  8
RA_6881
 62
     7
 10
549550
 20
3249119
  0
VERTEX
  8
RA_6881
 62
     7
 10
549576
 20
3249157
  0
VERTEX
  8
RA_6881
 62
     7
 10
549601
 20
3249184
  0
VERTEX
  8
RA_6881
 62
     7
 10
549643
 20
3249243
  0
VERTEX
  8
RA_6881
 62
     7
 10
549685
 20
3249286
  0
VERTEX
  8
RA_6881
 62
     7
 10
549710
 20
3249310
  0
VERTEX
  8
RA_6881
 62
     7
 10
549739
 20
3249335
  0
SEQEND
  0
POLYLINE
  8
RA_6881
  6
CONTINUOUS
 62
     7
 66
     1
  0
VERTEX
  8
RA_6881
 62
     7
 10
551179
 20
3250451
  0
VERTEX
  8
RA_6881
 62
     7
 10
551153
 20
3250515
  0
VERTEX
  8
RA_6881
 62
     7
 10
551145
 20
3250546
  0
VERTEX
  8
RA_6881
 62
     7
 10
551147
 20
3250571
  0
VERTEX
  8
RA_6881
 62
     7
 10
551176
 20
3250648
  0
VERTEX
  8
RA_6881
 62
     7
 10
551207
 20
3250681
  0
VERTEX
  8
RA_6881
 62
     7
 10
551243
 20
3250711
  0
VERTEX
  8
RA_6881
 62
     7
 10
551272
 20
3250733
  0
VERTEX
  8
RA_6881
 62
     7
 10
551289
 20
3250748
  0
VERTEX
  8
RA_6881
 62
     7
 10
551307
 20
3250753
  0
VERTEX
  8
RA_6881
 62
     7
 10
551326
 20
3250746
  0
VERTEX
  8
RA_6881
 62
     7
 10
551359
 20
3250735
  0
VERTEX
  8
RA_6881
 62
     7
 10
551430
 20
3250724
  0
VERTEX
  8
RA_6881
 62
     7
 10
551493
 20
3250721
  0
VERTEX
  8
RA_6881
 62
     7
 10
551514
 20
3250713
  0
VERTEX
  8
RA_6881
 62
     7
 10
551559
 20
3250697
  0
VERTEX
  8
RA_6881
 62
     7
 10
551578
 20
3250679
  0
VERTEX
  8
RA_6881
 62
     7
 10
551603
 20
3250665
  0
VERTEX
  8
RA_6881
 62
     7
 10
551607
 20
3250654
  0
VERTEX
  8
RA_6881
 62
     7
 10
551595
 20
3250639
  0
VERTEX
  8
RA_6881
 62
     7
 10
551576
 20
3250624
  0
VERTEX
  8
RA_6881
 62
     7
 10
551561
 20
3250605
  0
VERTEX
  8
RA_6881
 62
     7
 10
551549
 20
3250582
  0
VERTEX
  8
RA_6881
 62
     7
 10
551530
 20
3250562
  0
VERTEX
  8
RA_6881
 62
     7
 10
551511
 20
3250546
  0
VERTEX
  8
RA_6881
 62
     7
 10
551497
 20
3250530
  0
VERTEX
  8
RA_6881
 62
     7
 10
551484
 20
3250513
  0
VERTEX
  8
RA_6881
 62
     7
 10
551474
 20
3250473
  0
VERTEX
  8
RA_6881
 62
     7
 10
551466
 20
3250445
  0
VERTEX
  8
RA_6881
 62
     7
 10
551447
 20
3250425
  0
VERTEX
  8
RA_6881
 62
     7
 10
551436
 20
3250404
  0
VERTEX
  8
RA_6881
 62
     7
 10
551430
 20
3250362
  0
VERTEX
  8
RA_6881
 62
     7
 10
551424
 20
3250330
  0
VERTEX
  8
RA_6881
 62
     7
 10
551407
 20
3250282
  0
VERTEX
  8
RA_6881
 62
     7
 10
551384
 20
3250229
  0
VERTEX
  8
RA_6881
 62
     7
 10
551372
 20
3250208
  0
VERTEX
  8
RA_6881
 62
     7
 10
551365
 20
3250210
  0
VERTEX
  8
RA_6881
 62
     7
 10
551359
 20
3250225
  0
VERTEX
  8
RA_6881
 62
     7
 10
551351
 20
3250247
  0
VERTEX
  8
RA_6881
 62
     7
 10
551339
 20
3250264
  0
VERTEX
  8
RA_6881
 62
     7
 10
551321
 20
3250279
  0
VERTEX
  8
RA_6881
 62
     7
 10
551289
 20
3250309
  0
VERTEX
  8
RA_6881
 62
     7
 10
551257
 20
3250338
  0
VERTEX
  8
RA_6881
 62
     7
 10
551230
 20
3250375
  0
VERTEX
  8
RA_6881
 62
     7
 10
551211
 20
3250406
  0
VERTEX
  8
RA_6881
 62
     7
 10
551179
 20
3250451
  0
SEQEND
  0
POLYLINE
  8
RA_6881
  6
CONTINUOUS
 62
     7
 66
     1
  0
VERTEX
  8
RA_6881
 62
     7
 10
542842
 20
3244227
  0
VERTEX
  8
RA_6881
 62
     7
 10
542859
 20
3244246
  0
VERTEX
  8
RA_6881
 62
     7
 10
542912
 20
3244222
  0
VERTEX
  8
RA_6881
 62
     7
 10
543000
 20
3244192
  0
VERTEX
  8
RA_6881
 62
     7
 10
543032
 20
3244167
  0
VERTEX
  8
RA_6881
 62
     7
 10
543061
 20
3244143
  0
VERTEX
  8
RA_6881
 62
     7
 10
543108
 20
3244065
  0
VERTEX
  8
RA_6881
 62
     7
 10
543172
 20
3243956
  0
VERTEX
  8
RA_6881
 62
     7
 10
543208
 20
3243901
  0
VERTEX
  8
RA_6881
 62
     7
 10
543233
 20
3243879
  0
VERTEX
  8
RA_6881
 62
     7
 10
543243
 20
3243869
  0
VERTEX
  8
RA_6881
 62
     7
 10
543261
 20
3243831
  0
VERTEX
  8
RA_6881
 62
     7
 10
543293
 20
3243774
  0
SEQEND
  0
POLYLINE
  8
RA_6881
  6
CONTINUOUS
 62
     7
 66
     1
  0
VERTEX
  8
RA_6881
 62
     7
 10
553128
 20
3251890
  0
VERTEX
  8
RA_6881
 62
     7
 10
553114
 20
3251863
  0
VERTEX
  8
RA_6881
 62
     7
 10
553048
 20
3251771
  0
VERTEX
  8
RA_6881
 62
     7
 10
553016
 20
3251747
  0
VERTEX
  8
RA_6881
 62
     7
 10
552909
 20
3251696
  0
VERTEX
  8
RA_6881
 62
     7
 10
552918
 20
3251739
  0
VERTEX
  8
RA_6881
 62
     7
 10
552917
 20
3251773
  0
VERTEX
  8
RA_6881
 62
     7
 10
552934
 20
3251822
  0
VERTEX
  8
RA_6881
 62
     7
 10
552954
 20
3251866
  0
VERTEX
  8
RA_6881
 62
     7
 10
553012
 20
3251950
  0
VERTEX
  8
RA_6881
 62
     7
 10
553033
 20
3251985
  0
VERTEX
  8
RA_6881
 62
     7
 10
553046
 20
3251999
  0
VERTEX
  8
RA_6881
 62
     7
 10
553064
 20
3252008
  0
VERTEX
  8
RA_6881
 62
     7
 10
553086
 20
3252035
  0
VERTEX
  8
RA_6881
 62
     7
 10
553099
 20
3252072
  0
VERTEX
  8
RA_6881
 62
     7
 10
553116
 20
3252134
  0
VERTEX
  8
RA_6881
 62
     7
 10
553135
 20
3252151
  0
VERTEX
  8
RA_6881
 62
     7
 10
553162
 20
3252172
  0
VERTEX
  8
RA_6881
 62
     7
 10
553179
 20
3252199
  0
VERTEX
  8
RA_6881
 62
     7
 10
553204
 20
3252261
  0
VERTEX
  8
RA_6881
 62
     7
 10
553223
 20
3252306
  0
VERTEX
  8
RA_6881
 62
     7
 10
553250
 20
3252381
  0
VERTEX
  8
RA_6881
 62
     7
 10
553266
 20
3252401
  0
VERTEX
  8
RA_6881
 62
     7
 10
553294
 20
3252428
  0
VERTEX
  8
RA_6881
 62
     7
 10
553333
 20
3252457
  0
VERTEX
  8
RA_6881
 62
     7
 10
553377
 20
3252483
  0
VERTEX
  8
RA_6881
 62
     7
 10
553404
 20
3252496
  0
VERTEX
  8
RA_6881
 62
     7
 10
553390
 20
3252466
  0
VERTEX
  8
RA_6881
 62
     7
 10
553363
 20
3252425
  0
VERTEX
  8
RA_6881
 62
     7
 10
553310
 20
3252325
  0
VERTEX
  8
RA_6881
 62
     7
 10
553282
 20
3252287
  0
VERTEX
  8
RA_6881
 62
     7
 10
553242
 20
3252215
  0
VERTEX
  8
RA_6881
 62
     7
 10
553221
 20
3252138
  0
VERTEX
  8
RA_6881
 62
     7
 10
553211
 20
3252069
  0
VERTEX
  8
RA_6881
 62
     7
 10
553174
 20
3251974
  0
VERTEX
  8
RA_6881
 62
     7
 10
553128
 20
3251890
  0
SEQEND
  0
POLYLINE
  8
RA_6881
  6
CONTINUOUS
 62
     7
 66
     1
  0
VERTEX
  8
RA_6881
 62
     7
 10
538384
 20
3240794
  0
VERTEX
  8
RA_6881
 62
     7
 10
538391
 20
3240821
  0
VERTEX
  8
RA_6881
 62
     7
 10
538443
 20
3240905
  0
VERTEX
  8
RA_6881
 62
     7
 10
538509
 20
3240960
  0
VERTEX
  8
RA_6881
 62
     7
 10
538550
 20
3240981
  0
VERTEX
  8
RA_6881
 62
     7
 10
538590
 20
3240992
  0
VERTEX
  8
RA_6881
 62
     7
 10
538628
 20
3241022
  0
VERTEX
  8
RA_6881
 62
     7
 10
538698
 20
3241066
  0
VERTEX
  8
RA_6881
 62
     7
 10
538764
 20
3241094
  0
VERTEX
  8
RA_6881
 62
     7
 10
538776
 20
3241111
  0
VERTEX
  8
RA_6881
 62
     7
 10
538805
 20
3241167
  0
VERTEX
  8
RA_6881
 62
     7
 10
538838
 20
3241211
  0
VERTEX
  8
RA_6881
 62
     7
 10
538888
 20
3241282
  0
VERTEX
  8
RA_6881
 62
     7
 10
538920
 20
3241311
  0
VERTEX
  8
RA_6881
 62
     7
 10
538986
 20
3241365
  0
VERTEX
  8
RA_6881
 62
     7
 10
539034
 20
3241423
  0
VERTEX
  8
RA_6881
 62
     7
 10
539087
 20
3241490
  0
VERTEX
  8
RA_6881
 62
     7
 10
539148
 20
3241566
  0
VERTEX
  8
RA_6881
 62
     7
 10
539194
 20
3241625
  0
VERTEX
  8
RA_6881
 62
     7
 10
539191
 20
3241606
  0
VERTEX
  8
RA_6881
 62
     7
 10
539193
 20
3241566
  0
VERTEX
  8
RA_6881
 62
     7
 10
539188
 20
3241537
  0
VERTEX
  8
RA_6881
 62
     7
 10
539175
 20
3241496
  0
VERTEX
  8
RA_6881
 62
     7
 10
539141
 20
3241443
  0
VERTEX
  8
RA_6881
 62
     7
 10
539084
 20
3241378
  0
VERTEX
  8
RA_6881
 62
     7
 10
539060
 20
3241348
  0
VERTEX
  8
RA_6881
 62
     7
 10
539040
 20
3241309
  0
VERTEX
  8
RA_6881
 62
     7
 10
539017
 20
3241291
  0
VERTEX
  8
RA_6881
 62
     7
 10
539007
 20
3241268
  0
VERTEX
  8
RA_6881
 62
     7
 10
538989
 20
3241241
  0
VERTEX
  8
RA_6881
 62
     7
 10
538954
 20
3241211
  0
VERTEX
  8
RA_6881
 62
     7
 10
538857
 20
3241101
  0
VERTEX
  8
RA_6881
 62
     7
 10
538783
 20
3241033
  0
VERTEX
  8
RA_6881
 62
     7
 10
538727
 20
3240986
  0
VERTEX
  8
RA_6881
 62
     7
 10
538648
 20
3240913
  0
VERTEX
  8
RA_6881
 62
     7
 10
538576
 20
3240827
  0
VERTEX
  8
RA_6881
 62
     7
 10
538538
 20
3240767
  0
VERTEX
  8
RA_6881
 62
     7
 10
538526
 20
3240727
  0
VERTEX
  8
RA_6881
 62
     7
 10
538509
 20
3240698
  0
VERTEX
  8
RA_6881
 62
     7
 10
538476
 20
3240656
  0
VERTEX
  8
RA_6881
 62
     7
 10
538446
 20
3240626
  0
VERTEX
  8
RA_6881
 62
     7
 10
538421
 20
3240603
  0
VERTEX
  8
RA_6881
 62
     7
 10
538392
 20
3240593
  0
VERTEX
  8
RA_6881
 62
     7
 10
538363
 20
3240572
  0
VERTEX
  8
RA_6881
 62
     7
 10
538330
 20
3240549
  0
VERTEX
  8
RA_6881
 62
     7
 10
538332
 20
3240561
  0
VERTEX
  8
RA_6881
 62
     7
 10
538350
 20
3240587
  0
VERTEX
  8
RA_6881
 62
     7
 10
538361
 20
3240613
  0
VERTEX
  8
RA_6881
 62
     7
 10
538369
 20
3240737
  0
VERTEX
  8
RA_6881
 62
     7
 10
538384
 20
3240794
  0
SEQEND
  0
POLYLINE
  8
RA_6881
  6
CONTINUOUS
 62
     7
 66
     1
  0
VERTEX
  8
RA_6881
 62
     7
 10
552011
 20
3251136
  0
VERTEX
  8
RA_6881
 62
     7
 10
552027
 20
3251217
  0
VERTEX
  8
RA_6881
 62
     7
 10
552054
 20
3251304
  0
VERTEX
  8
RA_6881
 62
     7
 10
552082
 20
3251376
  0
VERTEX
  8
RA_6881
 62
     7
 10
552124
 20
3251424
  0
VERTEX
  8
RA_6881
 62
     7
 10
552175
 20
3251465
  0
VERTEX
  8
RA_6881
 62
     7
 10
552230
 20
3251504
  0
VERTEX
  8
RA_6881
 62
     7
 10
552257
 20
3251517
  0
VERTEX
  8
RA_6881
 62
     7
 10
552232
 20
3251467
  0
VERTEX
  8
RA_6881
 62
     7
 10
552217
 20
3251431
  0
VERTEX
  8
RA_6881
 62
     7
 10
552214
 20
3251397
  0
VERTEX
  8
RA_6881
 62
     7
 10
552231
 20
3251364
  0
VERTEX
  8
RA_6881
 62
     7
 10
552244
 20
3251333
  0
VERTEX
  8
RA_6881
 62
     7
 10
552248
 20
3251281
  0
VERTEX
  8
RA_6881
 62
     7
 10
552237
 20
3251217
  0
VERTEX
  8
RA_6881
 62
     7
 10
552230
 20
3251193
  0
VERTEX
  8
RA_6881
 62
     7
 10
552208
 20
3251167
  0
VERTEX
  8
RA_6881
 62
     7
 10
552184
 20
3251152
  0
VERTEX
  8
RA_6881
 62
     7
 10
552162
 20
3251125
  0
VERTEX
  8
RA_6881
 62
     7
 10
552147
 20
3251086
  0
VERTEX
  8
RA_6881
 62
     7
 10
552109
 20
3251058
  0
VERTEX
  8
RA_6881
 62
     7
 10
552085
 20
3251042
  0
VERTEX
  8
RA_6881
 62
     7
 10
552064
 20
3251040
  0
VERTEX
  8
RA_6881
 62
     7
 10
552046
 20
3251025
  0
VERTEX
  8
RA_6881
 62
     7
 10
552033
 20
3251000
  0
VERTEX
  8
RA_6881
 62
     7
 10
552009
 20
3250982
  0
VERTEX
  8
RA_6881
 62
     7
 10
551971
 20
3250970
  0
VERTEX
  8
RA_6881
 62
     7
 10
551964
 20
3250990
  0
VERTEX
  8
RA_6881
 62
     7
 10
551973
 20
3251052
  0
VERTEX
  8
RA_6881
 62
     7
 10
551983
 20
3251078
  0
VERTEX
  8
RA_6881
 62
     7
 10
551997
 20
3251099
  0
VERTEX
  8
RA_6881
 62
     7
 10
552009
 20
3251115
  0
VERTEX
  8
RA_6881
 62
     7
 10
552011
 20
3251136
  0
SEQEND
  0
POLYLINE
  8
RA_6881
  6
CONTINUOUS
 62
     7
 66
     1
  0
VERTEX
  8
RA_6881
 62
     7
 10
546075
 20
3245668
  0
VERTEX
  8
RA_6881
 62
     7
 10
546094
 20
3245684
  0
VERTEX
  8
RA_6881
 62
     7
 10
546108
 20
3245712
  0
VERTEX
  8
RA_6881
 62
     7
 10
546122
 20
3245750
  0
VERTEX
  8
RA_6881
 62
     7
 10
546126
 20
3245790
  0
SEQEND
  0
POLYLINE
  8
RA_6881
  6
CONTINUOUS
 62
     7
 66
     1
  0
VERTEX
  8
RA_6881
 62
     7
 10
555858
 20
3255229
  0
VERTEX
  8
RA_6881
 62
     7
 10
555883
 20
3255231
  0
VERTEX
  8
RA_6881
 62
     7
 10
555931
 20
3255236
  0
VERTEX
  8
RA_6881
 62
     7
 10
555988
 20
3255243
  0
VERTEX
  8
RA_6881
 62
     7
 10
556029
 20
3255264
  0
VERTEX
  8
RA_6881
 62
     7
 10
556065
 20
3255269
  0
VERTEX
  8
RA_6881
 62
     7
 10
556092
 20
3255277
  0
VERTEX
  8
RA_6881
 62
     7
 10
556123
 20
3255278
  0
VERTEX
  8
RA_6881
 62
     7
 10
556159
 20
3255293
  0
VERTEX
  8
RA_6881
 62
     7
 10
556186
 20
3255308
  0
VERTEX
  8
RA_6881
 62
     7
 10
556215
 20
3255333
  0
VERTEX
  8
RA_6881
 62
     7
 10
556246
 20
3255369
  0
VERTEX
  8
RA_6881
 62
     7
 10
556285
 20
3255391
  0
VERTEX
  8
RA_6881
 62
     7
 10
556314
 20
3255404
  0
VERTEX
  8
RA_6881
 62
     7
 10
556379
 20
3255501
  0
VERTEX
  8
RA_6881
 62
     7
 10
556408
 20
3255546
  0
VERTEX
  8
RA_6881
 62
     7
 10
556445
 20
3255571
  0
VERTEX
  8
RA_6881
 62
     7
 10
556502
 20
3255566
  0
VERTEX
  8
RA_6881
 62
     7
 10
556552
 20
3255561
  0
VERTEX
  8
RA_6881
 62
     7
 10
556592
 20
3255564
  0
VERTEX
  8
RA_6881
 62
     7
 10
556623
 20
3255559
  0
VERTEX
  8
RA_6881
 62
     7
 10
556700
 20
3255526
  0
VERTEX
  8
RA_6881
 62
     7
 10
556790
 20
3255484
  0
VERTEX
  8
RA_6881
 62
     7
 10
556848
 20
3255468
  0
VERTEX
  8
RA_6881
 62
     7
 10
556890
 20
3255469
  0
VERTEX
  8
RA_6881
 62
     7
 10
556939
 20
3255470
  0
VERTEX
  8
RA_6881
 62
     7
 10
556971
 20
3255471
  0
VERTEX
  8
RA_6881
 62
     7
 10
557013
 20
3255476
  0
VERTEX
  8
RA_6881
 62
     7
 10
557075
 20
3255492
  0
VERTEX
  8
RA_6881
 62
     7
 10
557176
 20
3255526
  0
VERTEX
  8
RA_6881
 62
     7
 10
557304
 20
3255567
  0
VERTEX
  8
RA_6881
 62
     7
 10
557335
 20
3255579
  0
VERTEX
  8
RA_6881
 62
     7
 10
557367
 20
3255590
  0
VERTEX
  8
RA_6881
 62
     7
 10
557402
 20
3255597
  0
VERTEX
  8
RA_6881
 62
     7
 10
557469
 20
3255600
  0
VERTEX
  8
RA_6881
 62
     7
 10
557526
 20
3255606
  0
VERTEX
  8
RA_6881
 62
     7
 10
557588
 20
3255606
  0
VERTEX
  8
RA_6881
 62
     7
 10
557615
 20
3255569
  0
VERTEX
  8
RA_6881
 62
     7
 10
557633
 20
3255552
  0
VERTEX
  8
RA_6881
 62
     7
 10
557686
 20
3255573
  0
VERTEX
  8
RA_6881
 62
     7
 10
557732
 20
3255602
  0
VERTEX
  8
RA_6881
 62
     7
 10
557805
 20
3255656
  0
VERTEX
  8
RA_6881
 62
     7
 10
557858
 20
3255700
  0
VERTEX
  8
RA_6881
 62
     7
 10
557885
 20
3255725
  0
VERTEX
  8
RA_6881
 62
     7
 10
557914
 20
3255783
  0
VERTEX
  8
RA_6881
 62
     7
 10
557914
 20
3255785
  0
VERTEX
  8
RA_6881
 62
     7
 10
557924
 20
3255822
  0
VERTEX
  8
RA_6881
 62
     7
 10
557975
 20
3255857
  0
VERTEX
  8
RA_6881
 62
     7
 10
558025
 20
3255886
  0
VERTEX
  8
RA_6881
 62
     7
 10
558059
 20
3255901
  0
VERTEX
  8
RA_6881
 62
     7
 10
558091
 20
3255939
  0
VERTEX
  8
RA_6881
 62
     7
 10
558121
 20
3255935
  0
VERTEX
  8
RA_6881
 62
     7
 10
558162
 20
3255935
  0
VERTEX
  8
RA_6881
 62
     7
 10
558200
 20
3255957
  0
VERTEX
  8
RA_6881
 62
     7
 10
558259
 20
3255997
  0
VERTEX
  8
RA_6881
 62
     7
 10
558364
 20
3256016
  0
VERTEX
  8
RA_6881
 62
     7
 10
558355
 20
3255980
  0
VERTEX
  8
RA_6881
 62
     7
 10
558366
 20
3255963
  0
VERTEX
  8
RA_6881
 62
     7
 10
558394
 20
3255957
  0
VERTEX
  8
RA_6881
 62
     7
 10
558445
 20
3255959
  0
VERTEX
  8
RA_6881
 62
     7
 10
558503
 20
3255978
  0
VERTEX
  8
RA_6881
 62
     7
 10
558591
 20
3256015
  0
VERTEX
  8
RA_6881
 62
     7
 10
558626
 20
3256032
  0
VERTEX
  8
RA_6881
 62
     7
 10
558680
 20
3256061
  0
VERTEX
  8
RA_6881
 62
     7
 10
558736
 20
3256109
  0
VERTEX
  8
RA_6881
 62
     7
 10
558786
 20
3256161
  0
VERTEX
  8
RA_6881
 62
     7
 10
558803
 20
3256190
  0
VERTEX
  8
RA_6881
 62
     7
 10
558820
 20
3256232
  0
VERTEX
  8
RA_6881
 62
     7
 10
558811
 20
3256276
  0
VERTEX
  8
RA_6881
 62
     7
 10
558799
 20
3256333
  0
VERTEX
  8
RA_6881
 62
     7
 10
558794
 20
3256357
  0
VERTEX
  8
RA_6881
 62
     7
 10
558780
 20
3256370
  0
VERTEX
  8
RA_6881
 62
     7
 10
558761
 20
3256376
  0
VERTEX
  8
RA_6881
 62
     7
 10
558726
 20
3256363
  0
VERTEX
  8
RA_6881
 62
     7
 10
558649
 20
3256311
  0
VERTEX
  8
RA_6881
 62
     7
 10
558559
 20
3256236
  0
VERTEX
  8
RA_6881
 62
     7
 10
558501
 20
3256213
  0
VERTEX
  8
RA_6881
 62
     7
 10
558447
 20
3256218
  0
VERTEX
  8
RA_6881
 62
     7
 10
558368
 20
3256209
  0
VERTEX
  8
RA_6881
 62
     7
 10
558292
 20
3256193
  0
VERTEX
  8
RA_6881
 62
     7
 10
558191
 20
3256180
  0
VERTEX
  8
RA_6881
 62
     7
 10
558172
 20
3256175
  0
VERTEX
  8
RA_6881
 62
     7
 10
558130
 20
3256167
  0
VERTEX
  8
RA_6881
 62
     7
 10
558071
 20
3256132
  0
VERTEX
  8
RA_6881
 62
     7
 10
557995
 20
3256093
  0
VERTEX
  8
RA_6881
 62
     7
 10
557981
 20
3256074
  0
VERTEX
  8
RA_6881
 62
     7
 10
557961
 20
3256049
  0
VERTEX
  8
RA_6881
 62
     7
 10
557947
 20
3256026
  0
VERTEX
  8
RA_6881
 62
     7
 10
557915
 20
3255999
  0
VERTEX
  8
RA_6881
 62
     7
 10
557865
 20
3255963
  0
VERTEX
  8
RA_6881
 62
     7
 10
557821
 20
3255928
  0
VERTEX
  8
RA_6881
 62
     7
 10
557800
 20
3255894
  0
VERTEX
  8
RA_6881
 62
     7
 10
557781
 20
3255861
  0
VERTEX
  8
RA_6881
 62
     7
 10
557761
 20
3255840
  0
VERTEX
  8
RA_6881
 62
     7
 10
557713
 20
3255824
  0
VERTEX
  8
RA_6881
 62
     7
 10
557648
 20
3255804
  0
VERTEX
  8
RA_6881
 62
     7
 10
557551
 20
3255776
  0
VERTEX
  8
RA_6881
 62
     7
 10
557466
 20
3255767
  0
VERTEX
  8
RA_6881
 62
     7
 10
557409
 20
3255771
  0
VERTEX
  8
RA_6881
 62
     7
 10
557335
 20
3255771
  0
VERTEX
  8
RA_6881
 62
     7
 10
557293
 20
3255780
  0
VERTEX
  8
RA_6881
 62
     7
 10
557269
 20
3255792
  0
VERTEX
  8
RA_6881
 62
     7
 10
557218
 20
3255842
  0
VERTEX
  8
RA_6881
 62
     7
 10
557168
 20
3255911
  0
VERTEX
  8
RA_6881
 62
     7
 10
557117
 20
3255974
  0
VERTEX
  8
RA_6881
 62
     7
 10
557079
 20
3255994
  0
VERTEX
  8
RA_6881
 62
     7
 10
557060
 20
3255994
  0
VERTEX
  8
RA_6881
 62
     7
 10
557043
 20
3255982
  0
VERTEX
  8
RA_6881
 62
     7
 10
557039
 20
3255978
  0
VERTEX
  8
RA_6881
 62
     7
 10
557036
 20
3255942
  0
VERTEX
  8
RA_6881
 62
     7
 10
557041
 20
3255873
  0
VERTEX
  8
RA_6881
 62
     7
 10
557049
 20
3255849
  0
VERTEX
  8
RA_6881
 62
     7
 10
557085
 20
3255817
  0
VERTEX
  8
RA_6881
 62
     7
 10
557126
 20
3255788
  0
VERTEX
  8
RA_6881
 62
     7
 10
557147
 20
3255774
  0
VERTEX
  8
RA_6881
 62
     7
 10
557168
 20
3255757
  0
VERTEX
  8
RA_6881
 62
     7
 10
557201
 20
3255736
  0
VERTEX
  8
RA_6881
 62
     7
 10
557216
 20
3255721
  0
VERTEX
  8
RA_6881
 62
     7
 10
557218
 20
3255703
  0
VERTEX
  8
RA_6881
 62
     7
 10
557211
 20
3255686
  0
VERTEX
  8
RA_6881
 62
     7
 10
557160
 20
3255675
  0
VERTEX
  8
RA_6881
 62
     7
 10
557133
 20
3255658
  0
VERTEX
  8
RA_6881
 62
     7
 10
557094
 20
3255651
  0
VERTEX
  8
RA_6881
 62
     7
 10
557058
 20
3255643
  0
VERTEX
  8
RA_6881
 62
     7
 10
557027
 20
3255628
  0
VERTEX
  8
RA_6881
 62
     7
 10
556989
 20
3255602
  0
VERTEX
  8
RA_6881
 62
     7
 10
556950
 20
3255580
  0
VERTEX
  8
RA_6881
 62
     7
 10
556923
 20
3255571
  0
VERTEX
  8
RA_6881
 62
     7
 10
556852
 20
3255575
  0
VERTEX
  8
RA_6881
 62
     7
 10
556811
 20
3255580
  0
VERTEX
  8
RA_6881
 62
     7
 10
556784
 20
3255584
  0
VERTEX
  8
RA_6881
 62
     7
 10
556763
 20
3255593
  0
VERTEX
  8
RA_6881
 62
     7
 10
556722
 20
3255610
  0
VERTEX
  8
RA_6881
 62
     7
 10
556682
 20
3255628
  0
VERTEX
  8
RA_6881
 62
     7
 10
556648
 20
3255637
  0
VERTEX
  8
RA_6881
 62
     7
 10
556611
 20
3255637
  0
VERTEX
  8
RA_6881
 62
     7
 10
556578
 20
3255643
  0
VERTEX
  8
RA_6881
 62
     7
 10
556548
 20
3255633
  0
VERTEX
  8
RA_6881
 62
     7
 10
556491
 20
3255620
  0
VERTEX
  8
RA_6881
 62
     7
 10
556448
 20
3255610
  0
VERTEX
  8
RA_6881
 62
     7
 10
556407
 20
3255593
  0
VERTEX
  8
RA_6881
 62
     7
 10
556365
 20
3255570
  0
VERTEX
  8
RA_6881
 62
     7
 10
556352
 20
3255556
  0
VERTEX
  8
RA_6881
 62
     7
 10
556347
 20
3255549
  0
VERTEX
  8
RA_6881
 62
     7
 10
556322
 20
3255539
  0
VERTEX
  8
RA_6881
 62
     7
 10
556292
 20
3255556
  0
VERTEX
  8
RA_6881
 62
     7
 10
556264
 20
3255565
  0
VERTEX
  8
RA_6881
 62
     7
 10
556235
 20
3255557
  0
VERTEX
  8
RA_6881
 62
     7
 10
556191
 20
3255534
  0
VERTEX
  8
RA_6881
 62
     7
 10
556153
 20
3255513
  0
VERTEX
  8
RA_6881
 62
     7
 10
556125
 20
3255492
  0
VERTEX
  8
RA_6881
 62
     7
 10
556091
 20
3255456
  0
VERTEX
  8
RA_6881
 62
     7
 10
556068
 20
3255438
  0
VERTEX
  8
RA_6881
 62
     7
 10
556033
 20
3255417
  0
VERTEX
  8
RA_6881
 62
     7
 10
555999
 20
3255398
  0
VERTEX
  8
RA_6881
 62
     7
 10
555972
 20
3255377
  0
VERTEX
  8
RA_6881
 62
     7
 10
555952
 20
3255348
  0
VERTEX
  8
RA_6881
 62
     7
 10
555922
 20
3255329
  0
VERTEX
  8
RA_6881
 62
     7
 10
555885
 20
3255286
  0
VERTEX
  8
RA_6881
 62
     7
 10
555864
 20
3255261
  0
VERTEX
  8
RA_6881
 62
     7
 10
555853
 20
3255240
  0
VERTEX
  8
RA_6881
 62
     7
 10
555858
 20
3255229
  0
SEQEND
  0
POLYLINE
  8
RA_6881
  6
CONTINUOUS
 62
     7
 66
     1
  0
VERTEX
  8
RA_6881
 62
     7
 10
542568
 20
3244205
  0
VERTEX
  8
RA_6881
 62
     7
 10
542628
 20
3244175
  0
VERTEX
  8
RA_6881
 62
     7
 10
542676
 20
3244144
  0
VERTEX
  8
RA_6881
 62
     7
 10
542710
 20
3244122
  0
VERTEX
  8
RA_6881
 62
     7
 10
542743
 20
3244107
  0
VERTEX
  8
RA_6881
 62
     7
 10
542779
 20
3244095
  0
VERTEX
  8
RA_6881
 62
     7
 10
542817
 20
3244085
  0
VERTEX
  8
RA_6881
 62
     7
 10
542866
 20
3244070
  0
VERTEX
  8
RA_6881
 62
     7
 10
542909
 20
3244054
  0
VERTEX
  8
RA_6881
 62
     7
 10
542965
 20
3244036
  0
VERTEX
  8
RA_6881
 62
     7
 10
542980
 20
3244020
  0
VERTEX
  8
RA_6881
 62
     7
 10
542995
 20
3243993
  0
VERTEX
  8
RA_6881
 62
     7
 10
543014
 20
3243980
  0
VERTEX
  8
RA_6881
 62
     7
 10
543034
 20
3243967
  0
SEQEND
  0
POLYLINE
  8
RA_6881
  6
CONTINUOUS
 62
     7
 66
     1
  0
VERTEX
  8
RA_6881
 62
     7
 10
555362
 20
3254801
  0
VERTEX
  8
RA_6881
 62
     7
 10
555301
 20
3254813
  0
VERTEX
  8
RA_6881
 62
     7
 10
555265
 20
3254818
  0
VERTEX
  8
RA_6881
 62
     7
 10
555227
 20
3254807
  0
VERTEX
  8
RA_6881
 62
     7
 10
555165
 20
3254787
  0
VERTEX
  8
RA_6881
 62
     7
 10
555108
 20
3254783
  0
VERTEX
  8
RA_6881
 62
     7
 10
555070
 20
3254786
  0
VERTEX
  8
RA_6881
 62
     7
 10
554995
 20
3254806
  0
VERTEX
  8
RA_6881
 62
     7
 10
554910
 20
3254826
  0
VERTEX
  8
RA_6881
 62
     7
 10
554879
 20
3254848
  0
VERTEX
  8
RA_6881
 62
     7
 10
554872
 20
3254869
  0
VERTEX
  8
RA_6881
 62
     7
 10
554897
 20
3254906
  0
VERTEX
  8
RA_6881
 62
     7
 10
554904
 20
3254928
  0
VERTEX
  8
RA_6881
 62
     7
 10
554912
 20
3254956
  0
VERTEX
  8
RA_6881
 62
     7
 10
554928
 20
3254972
  0
VERTEX
  8
RA_6881
 62
     7
 10
554973
 20
3254989
  0
VERTEX
  8
RA_6881
 62
     7
 10
555008
 20
3254990
  0
VERTEX
  8
RA_6881
 62
     7
 10
555056
 20
3254988
  0
VERTEX
  8
RA_6881
 62
     7
 10
555100
 20
3254990
  0
VERTEX
  8
RA_6881
 62
     7
 10
555120
 20
3254992
  0
VERTEX
  8
RA_6881
 62
     7
 10
555143
 20
3254987
  0
VERTEX
  8
RA_6881
 62
     7
 10
555169
 20
3254996
  0
VERTEX
  8
RA_6881
 62
     7
 10
555180
 20
3254993
  0
VERTEX
  8
RA_6881
 62
     7
 10
555177
 20
3254980
  0
VERTEX
  8
RA_6881
 62
     7
 10
555175
 20
3254953
  0
VERTEX
  8
RA_6881
 62
     7
 10
555170
 20
3254924
  0
VERTEX
  8
RA_6881
 62
     7
 10
555157
 20
3254904
  0
VERTEX
  8
RA_6881
 62
     7
 10
555145
 20
3254886
  0
VERTEX
  8
RA_6881
 62
     7
 10
555157
 20
3254878
  0
VERTEX
  8
RA_6881
 62
     7
 10
555178
 20
3254892
  0
VERTEX
  8
RA_6881
 62
     7
 10
555213
 20
3254936
  0
VERTEX
  8
RA_6881
 62
     7
 10
555248
 20
3254990
  0
VERTEX
  8
RA_6881
 62
     7
 10
555265
 20
3255011
  0
VERTEX
  8
RA_6881
 62
     7
 10
555326
 20
3255055
  0
VERTEX
  8
RA_6881
 62
     7
 10
555370
 20
3255076
  0
VERTEX
  8
RA_6881
 62
     7
 10
555401
 20
3255093
  0
VERTEX
  8
RA_6881
 62
     7
 10
555443
 20
3255151
  0
VERTEX
  8
RA_6881
 62
     7
 10
555466
 20
3255172
  0
VERTEX
  8
RA_6881
 62
     7
 10
555497
 20
3255195
  0
VERTEX
  8
RA_6881
 62
     7
 10
555518
 20
3255203
  0
VERTEX
  8
RA_6881
 62
     7
 10
555535
 20
3255193
  0
VERTEX
  8
RA_6881
 62
     7
 10
555554
 20
3255186
  0
VERTEX
  8
RA_6881
 62
     7
 10
555581
 20
3255191
  0
VERTEX
  8
RA_6881
 62
     7
 10
555612
 20
3255199
  0
VERTEX
  8
RA_6881
 62
     7
 10
555643
 20
3255214
  0
VERTEX
  8
RA_6881
 62
     7
 10
555656
 20
3255213
  0
VERTEX
  8
RA_6881
 62
     7
 10
555661
 20
3255202
  0
VERTEX
  8
RA_6881
 62
     7
 10
555651
 20
3255159
  0
VERTEX
  8
RA_6881
 62
     7
 10
555644
 20
3255079
  0
VERTEX
  8
RA_6881
 62
     7
 10
555640
 20
3255047
  0
VERTEX
  8
RA_6881
 62
     7
 10
555621
 20
3255025
  0
VERTEX
  8
RA_6881
 62
     7
 10
555607
 20
3255003
  0
VERTEX
  8
RA_6881
 62
     7
 10
555617
 20
3254954
  0
VERTEX
  8
RA_6881
 62
     7
 10
555603
 20
3254911
  0
VERTEX
  8
RA_6881
 62
     7
 10
555584
 20
3254875
  0
VERTEX
  8
RA_6881
 62
     7
 10
555556
 20
3254846
  0
VERTEX
  8
RA_6881
 62
     7
 10
555527
 20
3254833
  0
VERTEX
  8
RA_6881
 62
     7
 10
555487
 20
3254831
  0
VERTEX
  8
RA_6881
 62
     7
 10
555446
 20
3254826
  0
VERTEX
  8
RA_6881
 62
     7
 10
555408
 20
3254807
  0
VERTEX
  8
RA_6881
 62
     7
 10
555362
 20
3254801
  0
SEQEND
  0
POLYLINE
  8
RA_6881
  6
CONTINUOUS
 62
     7
 66
     1
  0
VERTEX
  8
RA_6881
 62
     7
 10
547777
 20
3248240
  0
VERTEX
  8
RA_6881
 62
     7
 10
547822
 20
3248246
  0
VERTEX
  8
RA_6881
 62
     7
 10
547854
 20
3248248
  0
VERTEX
  8
RA_6881
 62
     7
 10
547892
 20
3248248
  0
VERTEX
  8
RA_6881
 62
     7
 10
547930
 20
3248250
  0
VERTEX
  8
RA_6881
 62
     7
 10
547965
 20
3248246
  0
VERTEX
  8
RA_6881
 62
     7
 10
548014
 20
3248237
  0
VERTEX
  8
RA_6881
 62
     7
 10
548093
 20
3248219
  0
VERTEX
  8
RA_6881
 62
     7
 10
548135
 20
3248213
  0
VERTEX
  8
RA_6881
 62
     7
 10
548166
 20
3248213
  0
VERTEX
  8
RA_6881
 62
     7
 10
548199
 20
3248231
  0
VERTEX
  8
RA_6881
 62
     7
 10
548230
 20
3248238
  0
VERTEX
  8
RA_6881
 62
     7
 10
548266
 20
3248256
  0
VERTEX
  8
RA_6881
 62
     7
 10
548313
 20
3248279
  0
VERTEX
  8
RA_6881
 62
     7
 10
548344
 20
3248283
  0
VERTEX
  8
RA_6881
 62
     7
 10
548371
 20
3248286
  0
VERTEX
  8
RA_6881
 62
     7
 10
548400
 20
3248306
  0
VERTEX
  8
RA_6881
 62
     7
 10
548436
 20
3248305
  0
VERTEX
  8
RA_6881
 62
     7
 10
548464
 20
3248289
  0
VERTEX
  8
RA_6881
 62
     7
 10
548486
 20
3248285
  0
VERTEX
  8
RA_6881
 62
     7
 10
548506
 20
3248290
  0
VERTEX
  8
RA_6881
 62
     7
 10
548540
 20
3248297
  0
VERTEX
  8
RA_6881
 62
     7
 10
548553
 20
3248294
  0
VERTEX
  8
RA_6881
 62
     7
 10
548566
 20
3248293
  0
SEQEND
  0
POLYLINE
  8
RA_6881
  6
CONTINUOUS
 62
     7
 66
     1
  0
VERTEX
  8
RA_6881
 62
     7
 10
536826
 20
3239206
  0
VERTEX
  8
RA_6881
 62
     7
 10
536819
 20
3239240
  0
VERTEX
  8
RA_6881
 62
     7
 10
536809
 20
3239304
  0
VERTEX
  8
RA_6881
 62
     7
 10
536809
 20
3239333
  0
VERTEX
  8
RA_6881
 62
     7
 10
536828
 20
3239341
  0
VERTEX
  8
RA_6881
 62
     7
 10
536901
 20
3239298
  0
VERTEX
  8
RA_6881
 62
     7
 10
536912
 20
3239291
  0
VERTEX
  8
RA_6881
 62
     7
 10
536949
 20
3239254
  0
VERTEX
  8
RA_6881
 62
     7
 10
536970
 20
3239215
  0
VERTEX
  8
RA_6881
 62
     7
 10
536975
 20
3239168
  0
VERTEX
  8
RA_6881
 62
     7
 10
536967
 20
3239077
  0
VERTEX
  8
RA_6881
 62
     7
 10
536967
 20
3238999
  0
VERTEX
  8
RA_6881
 62
     7
 10
536973
 20
3238974
  0
VERTEX
  8
RA_6881
 62
     7
 10
536968
 20
3238931
  0
VERTEX
  8
RA_6881
 62
     7
 10
536955
 20
3238904
  0
VERTEX
  8
RA_6881
 62
     7
 10
536931
 20
3238845
  0
VERTEX
  8
RA_6881
 62
     7
 10
536885
 20
3238991
  0
VERTEX
  8
RA_6881
 62
     7
 10
536859
 20
3239072
  0
VERTEX
  8
RA_6881
 62
     7
 10
536834
 20
3239168
  0
VERTEX
  8
RA_6881
 62
     7
 10
536826
 20
3239206
  0
SEQEND
  0
POLYLINE
  8
RA_6881
  6
CONTINUOUS
 62
     7
 66
     1
  0
VERTEX
  8
RA_6881
 62
     7
 10
561483
 20
3256710
  0
VERTEX
  8
RA_6881
 62
     7
 10
561447
 20
3256702
  0
VERTEX
  8
RA_6881
 62
     7
 10
561418
 20
3256693
  0
VERTEX
  8
RA_6881
 62
     7
 10
561344
 20
3256683
  0
VERTEX
  8
RA_6881
 62
     7
 10
561264
 20
3256676
  0
VERTEX
  8
RA_6881
 62
     7
 10
561141
 20
3256673
  0
VERTEX
  8
RA_6881
 62
     7
 10
561089
 20
3256660
  0
VERTEX
  8
RA_6881
 62
     7
 10
561046
 20
3256648
  0
VERTEX
  8
RA_6881
 62
     7
 10
561008
 20
3256628
  0
VERTEX
  8
RA_6881
 62
     7
 10
560949
 20
3256611
  0
VERTEX
  8
RA_6881
 62
     7
 10
560920
 20
3256607
  0
VERTEX
  8
RA_6881
 62
     7
 10
560886
 20
3256618
  0
VERTEX
  8
RA_6881
 62
     7
 10
560868
 20
3256641
  0
VERTEX
  8
RA_6881
 62
     7
 10
560862
 20
3256659
  0
VERTEX
  8
RA_6881
 62
     7
 10
560870
 20
3256686
  0
VERTEX
  8
RA_6881
 62
     7
 10
560885
 20
3256709
  0
VERTEX
  8
RA_6881
 62
     7
 10
560903
 20
3256766
  0
VERTEX
  8
RA_6881
 62
     7
 10
560920
 20
3256801
  0
VERTEX
  8
RA_6881
 62
     7
 10
560939
 20
3256839
  0
VERTEX
  8
RA_6881
 62
     7
 10
560969
 20
3256907
  0
VERTEX
  8
RA_6881
 62
     7
 10
560995
 20
3256930
  0
VERTEX
  8
RA_6881
 62
     7
 10
561028
 20
3256945
  0
VERTEX
  8
RA_6881
 62
     7
 10
561074
 20
3256953
  0
VERTEX
  8
RA_6881
 62
     7
 10
561152
 20
3256949
  0
VERTEX
  8
RA_6881
 62
     7
 10
561211
 20
3256936
  0
VERTEX
  8
RA_6881
 62
     7
 10
561311
 20
3256897
  0
VERTEX
  8
RA_6881
 62
     7
 10
561361
 20
3256890
  0
VERTEX
  8
RA_6881
 62
     7
 10
561367
 20
3256889
  0
VERTEX
  8
RA_6881
 62
     7
 10
561458
 20
3256878
  0
VERTEX
  8
RA_6881
 62
     7
 10
561548
 20
3256840
  0
VERTEX
  8
RA_6881
 62
     7
 10
561623
 20
3256807
  0
VERTEX
  8
RA_6881
 62
     7
 10
561624
 20
3256808
  0
VERTEX
  8
RA_6881
 62
     7
 10
561637
 20
3256830
  0
VERTEX
  8
RA_6881
 62
     7
 10
561650
 20
3256845
  0
VERTEX
  8
RA_6881
 62
     7
 10
561645
 20
3256865
  0
VERTEX
  8
RA_6881
 62
     7
 10
561633
 20
3256887
  0
VERTEX
  8
RA_6881
 62
     7
 10
561667
 20
3256880
  0
VERTEX
  8
RA_6881
 62
     7
 10
561702
 20
3256862
  0
VERTEX
  8
RA_6881
 62
     7
 10
561718
 20
3256847
  0
VERTEX
  8
RA_6881
 62
     7
 10
561738
 20
3256841
  0
VERTEX
  8
RA_6881
 62
     7
 10
561775
 20
3256843
  0
VERTEX
  8
RA_6881
 62
     7
 10
561812
 20
3256849
  0
VERTEX
  8
RA_6881
 62
     7
 10
561874
 20
3256853
  0
VERTEX
  8
RA_6881
 62
     7
 10
561893
 20
3256860
  0
VERTEX
  8
RA_6881
 62
     7
 10
561928
 20
3256862
  0
VERTEX
  8
RA_6881
 62
     7
 10
561953
 20
3256853
  0
VERTEX
  8
RA_6881
 62
     7
 10
561982
 20
3256845
  0
VERTEX
  8
RA_6881
 62
     7
 10
562010
 20
3256849
  0
VERTEX
  8
RA_6881
 62
     7
 10
562040
 20
3256868
  0
VERTEX
  8
RA_6881
 62
     7
 10
562071
 20
3256870
  0
VERTEX
  8
RA_6881
 62
     7
 10
562092
 20
3256860
  0
VERTEX
  8
RA_6881
 62
     7
 10
562107
 20
3256837
  0
VERTEX
  8
RA_6881
 62
     7
 10
562102
 20
3256814
  0
VERTEX
  8
RA_6881
 62
     7
 10
562108
 20
3256801
  0
VERTEX
  8
RA_6881
 62
     7
 10
562120
 20
3256783
  0
VERTEX
  8
RA_6881
 62
     7
 10
562129
 20
3256770
  0
VERTEX
  8
RA_6881
 62
     7
 10
562159
 20
3256766
  0
VERTEX
  8
RA_6881
 62
     7
 10
562201
 20
3256774
  0
VERTEX
  8
RA_6881
 62
     7
 10
562226
 20
3256785
  0
VERTEX
  8
RA_6881
 62
     7
 10
562251
 20
3256794
  0
VERTEX
  8
RA_6881
 62
     7
 10
562270
 20
3256790
  0
VERTEX
  8
RA_6881
 62
     7
 10
562288
 20
3256792
  0
VERTEX
  8
RA_6881
 62
     7
 10
562313
 20
3256802
  0
VERTEX
  8
RA_6881
 62
     7
 10
562370
 20
3256800
  0
VERTEX
  8
RA_6881
 62
     7
 10
562447
 20
3256804
  0
VERTEX
  8
RA_6881
 62
     7
 10
562477
 20
3256806
  0
VERTEX
  8
RA_6881
 62
     7
 10
562503
 20
3256809
  0
VERTEX
  8
RA_6881
 62
     7
 10
562572
 20
3256812
  0
VERTEX
  8
RA_6881
 62
     7
 10
562640
 20
3256812
  0
VERTEX
  8
RA_6881
 62
     7
 10
562711
 20
3256822
  0
VERTEX
  8
RA_6881
 62
     7
 10
562772
 20
3256843
  0
VERTEX
  8
RA_6881
 62
     7
 10
562858
 20
3256870
  0
VERTEX
  8
RA_6881
 62
     7
 10
562925
 20
3256891
  0
VERTEX
  8
RA_6881
 62
     7
 10
563013
 20
3256901
  0
VERTEX
  8
RA_6881
 62
     7
 10
563125
 20
3256896
  0
VERTEX
  8
RA_6881
 62
     7
 10
563194
 20
3256888
  0
VERTEX
  8
RA_6881
 62
     7
 10
563244
 20
3256877
  0
VERTEX
  8
RA_6881
 62
     7
 10
563290
 20
3256853
  0
VERTEX
  8
RA_6881
 62
     7
 10
563350
 20
3256819
  0
VERTEX
  8
RA_6881
 62
     7
 10
563411
 20
3256802
  0
VERTEX
  8
RA_6881
 62
     7
 10
563519
 20
3256803
  0
VERTEX
  8
RA_6881
 62
     7
 10
563587
 20
3256811
  0
VERTEX
  8
RA_6881
 62
     7
 10
563640
 20
3256812
  0
VERTEX
  8
RA_6881
 62
     7
 10
563655
 20
3256798
  0
VERTEX
  8
RA_6881
 62
     7
 10
563653
 20
3256776
  0
VERTEX
  8
RA_6881
 62
     7
 10
563600
 20
3256743
  0
VERTEX
  8
RA_6881
 62
     7
 10
563556
 20
3256705
  0
VERTEX
  8
RA_6881
 62
     7
 10
563531
 20
3256693
  0
VERTEX
  8
RA_6881
 62
     7
 10
563495
 20
3256682
  0
VERTEX
  8
RA_6881
 62
     7
 10
563460
 20
3256674
  0
VERTEX
  8
RA_6881
 62
     7
 10
563405
 20
3256680
  0
VERTEX
  8
RA_6881
 62
     7
 10
563353
 20
3256694
  0
VERTEX
  8
RA_6881
 62
     7
 10
563325
 20
3256718
  0
VERTEX
  8
RA_6881
 62
     7
 10
563313
 20
3256723
  0
VERTEX
  8
RA_6881
 62
     7
 10
563284
 20
3256714
  0
VERTEX
  8
RA_6881
 62
     7
 10
563255
 20
3256700
  0
VERTEX
  8
RA_6881
 62
     7
 10
563217
 20
3256696
  0
VERTEX
  8
RA_6881
 62
     7
 10
563186
 20
3256693
  0
VERTEX
  8
RA_6881
 62
     7
 10
563142
 20
3256690
  0
VERTEX
  8
RA_6881
 62
     7
 10
563065
 20
3256700
  0
VERTEX
  8
RA_6881
 62
     7
 10
563015
 20
3256707
  0
VERTEX
  8
RA_6881
 62
     7
 10
562984
 20
3256699
  0
VERTEX
  8
RA_6881
 62
     7
 10
562948
 20
3256689
  0
VERTEX
  8
RA_6881
 62
     7
 10
562884
 20
3256690
  0
VERTEX
  8
RA_6881
 62
     7
 10
562809
 20
3256687
  0
VERTEX
  8
RA_6881
 62
     7
 10
562742
 20
3256682
  0
VERTEX
  8
RA_6881
 62
     7
 10
562647
 20
3256667
  0
VERTEX
  8
RA_6881
 62
     7
 10
562532
 20
3256633
  0
VERTEX
  8
RA_6881
 62
     7
 10
562417
 20
3256610
  0
VERTEX
  8
RA_6881
 62
     7
 10
562377
 20
3256608
  0
VERTEX
  8
RA_6881
 62
     7
 10
562305
 20
3256605
  0
VERTEX
  8
RA_6881
 62
     7
 10
562246
 20
3256599
  0
VERTEX
  8
RA_6881
 62
     7
 10
562203
 20
3256609
  0
VERTEX
  8
RA_6881
 62
     7
 10
562172
 20
3256642
  0
VERTEX
  8
RA_6881
 62
     7
 10
562154
 20
3256658
  0
VERTEX
  8
RA_6881
 62
     7
 10
562130
 20
3256667
  0
VERTEX
  8
RA_6881
 62
     7
 10
562091
 20
3256668
  0
VERTEX
  8
RA_6881
 62
     7
 10
562046
 20
3256665
  0
VERTEX
  8
RA_6881
 62
     7
 10
561990
 20
3256650
  0
VERTEX
  8
RA_6881
 62
     7
 10
561924
 20
3256663
  0
VERTEX
  8
RA_6881
 62
     7
 10
561904
 20
3256669
  0
VERTEX
  8
RA_6881
 62
     7
 10
561881
 20
3256676
  0
VERTEX
  8
RA_6881
 62
     7
 10
561830
 20
3256702
  0
VERTEX
  8
RA_6881
 62
     7
 10
561797
 20
3256710
  0
VERTEX
  8
RA_6881
 62
     7
 10
561786
 20
3256712
  0
VERTEX
  8
RA_6881
 62
     7
 10
561757
 20
3256704
  0
VERTEX
  8
RA_6881
 62
     7
 10
561726
 20
3256685
  0
VERTEX
  8
RA_6881
 62
     7
 10
561691
 20
3256691
  0
VERTEX
  8
RA_6881
 62
     7
 10
561676
 20
3256699
  0
VERTEX
  8
RA_6881
 62
     7
 10
561626
 20
3256726
  0
VERTEX
  8
RA_6881
 62
     7
 10
561595
 20
3256741
  0
VERTEX
  8
RA_6881
 62
     7
 10
561566
 20
3256740
  0
SEQEND
  0
POLYLINE
  8
RA_6881
  6
CONTINUOUS
 62
     7
 66
     1
  0
VERTEX
  8
RA_6881
 62
     7
 10
548230
 20
3248214
  0
VERTEX
  8
RA_6881
 62
     7
 10
548265
 20
3248226
  0
VERTEX
  8
RA_6881
 62
     7
 10
548317
 20
3248244
  0
VERTEX
  8
RA_6881
 62
     7
 10
548357
 20
3248263
  0
VERTEX
  8
RA_6881
 62
     7
 10
548385
 20
3248269
  0
VERTEX
  8
RA_6881
 62
     7
 10
548410
 20
3248275
  0
VERTEX
  8
RA_6881
 62
     7
 10
548445
 20
3248271
  0
VERTEX
  8
RA_6881
 62
     7
 10
548468
 20
3248267
  0
VERTEX
  8
RA_6881
 62
     7
 10
548496
 20
3248265
  0
VERTEX
  8
RA_6881
 62
     7
 10
548512
 20
3248265
  0
SEQEND
  0
POLYLINE
  8
RA_6881
  6
CONTINUOUS
 62
     7
 66
     1
  0
VERTEX
  8
RA_6881
 62
     7
 10
547316
 20
3248453
  0
VERTEX
  8
RA_6881
 62
     7
 10
547337
 20
3248436
  0
VERTEX
  8
RA_6881
 62
     7
 10
547365
 20
3248405
  0
VERTEX
  8
RA_6881
 62
     7
 10
547422
 20
3248378
  0
VERTEX
  8
RA_6881
 62
     7
 10
547491
 20
3248349
  0
VERTEX
  8
RA_6881
 62
     7
 10
547516
 20
3248338
  0
SEQEND
  0
POLYLINE
  8
RA_6881
  6
CONTINUOUS
 62
     7
 66
     1
  0
VERTEX
  8
RA_6881
 62
     7
 10
541135
 20
3243334
  0
VERTEX
  8
RA_6881
 62
     7
 10
541154
 20
3243352
  0
VERTEX
  8
RA_6881
 62
     7
 10
541228
 20
3243438
  0
VERTEX
  8
RA_6881
 62
     7
 10
541259
 20
3243466
  0
VERTEX
  8
RA_6881
 62
     7
 10
541267
 20
3243496
  0
VERTEX
  8
RA_6881
 62
     7
 10
541274
 20
3243543
  0
VERTEX
  8
RA_6881
 62
     7
 10
541270
 20
3243595
  0
VERTEX
  8
RA_6881
 62
     7
 10
541252
 20
3243637
  0
VERTEX
  8
RA_6881
 62
     7
 10
541240
 20
3243685
  0
VERTEX
  8
RA_6881
 62
     7
 10
541224
 20
3243706
  0
SEQEND
  0
POLYLINE
  8
RA_6881
  6
CONTINUOUS
 62
     7
 66
     1
  0
VERTEX
  8
RA_6881
 62
     7
 10
542568
 20
3244205
  0
VERTEX
  8
RA_6881
 62
     7
 10
542610
 20
3244213
  0
VERTEX
  8
RA_6881
 62
     7
 10
542692
 20
3244220
  0
VERTEX
  8
RA_6881
 62
     7
 10
542762
 20
3244228
  0
VERTEX
  8
RA_6881
 62
     7
 10
542792
 20
3244220
  0
VERTEX
  8
RA_6881
 62
     7
 10
542817
 20
3244209
  0
VERTEX
  8
RA_6881
 62
     7
 10
542853
 20
3244180
  0
VERTEX
  8
RA_6881
 62
     7
 10
542901
 20
3244133
  0
VERTEX
  8
RA_6881
 62
     7
 10
542979
 20
3244050
  0
VERTEX
  8
RA_6881
 62
     7
 10
543019
 20
3244001
  0
VERTEX
  8
RA_6881
 62
     7
 10
543034
 20
3243967
  0
SEQEND
  0
POLYLINE
  8
RA_6881
  6
CONTINUOUS
 62
     7
 66
     1
  0
VERTEX
  8
RA_6881
 62
     7
 10
550819
 20
3249960
  0
VERTEX
  8
RA_6881
 62
     7
 10
550797
 20
3249945
  0
VERTEX
  8
RA_6881
 62
     7
 10
550778
 20
3249929
  0
VERTEX
  8
RA_6881
 62
     7
 10
550780
 20
3249911
  0
VERTEX
  8
RA_6881
 62
     7
 10
550797
 20
3249896
  0
VERTEX
  8
RA_6881
 62
     7
 10
550831
 20
3249895
  0
VERTEX
  8
RA_6881
 62
     7
 10
550860
 20
3249901
  0
VERTEX
  8
RA_6881
 62
     7
 10
550887
 20
3249917
  0
VERTEX
  8
RA_6881
 62
     7
 10
550916
 20
3249931
  0
VERTEX
  8
RA_6881
 62
     7
 10
550954
 20
3249933
  0
VERTEX
  8
RA_6881
 62
     7
 10
550983
 20
3249918
  0
VERTEX
  8
RA_6881
 62
     7
 10
551012
 20
3249906
  0
VERTEX
  8
RA_6881
 62
     7
 10
551045
 20
3249898
  0
VERTEX
  8
RA_6881
 62
     7
 10
551077
 20
3249896
  0
VERTEX
  8
RA_6881
 62
     7
 10
551095
 20
3249906
  0
VERTEX
  8
RA_6881
 62
     7
 10
551106
 20
3249920
  0
VERTEX
  8
RA_6881
 62
     7
 10
551133
 20
3249959
  0
VERTEX
  8
RA_6881
 62
     7
 10
551155
 20
3249993
  0
VERTEX
  8
RA_6881
 62
     7
 10
551181
 20
3250026
  0
VERTEX
  8
RA_6881
 62
     7
 10
551199
 20
3250050
  0
VERTEX
  8
RA_6881
 62
     7
 10
551210
 20
3250073
  0
VERTEX
  8
RA_6881
 62
     7
 10
551208
 20
3250102
  0
VERTEX
  8
RA_6881
 62
     7
 10
551206
 20
3250117
  0
VERTEX
  8
RA_6881
 62
     7
 10
551199
 20
3250175
  0
VERTEX
  8
RA_6881
 62
     7
 10
551183
 20
3250188
  0
VERTEX
  8
RA_6881
 62
     7
 10
551172
 20
3250186
  0
VERTEX
  8
RA_6881
 62
     7
 10
551154
 20
3250183
  0
VERTEX
  8
RA_6881
 62
     7
 10
551120
 20
3250163
  0
VERTEX
  8
RA_6881
 62
     7
 10
551085
 20
3250147
  0
VERTEX
  8
RA_6881
 62
     7
 10
551056
 20
3250141
  0
VERTEX
  8
RA_6881
 62
     7
 10
551024
 20
3250127
  0
VERTEX
  8
RA_6881
 62
     7
 10
550981
 20
3250108
  0
VERTEX
  8
RA_6881
 62
     7
 10
550949
 20
3250093
  0
VERTEX
  8
RA_6881
 62
     7
 10
550918
 20
3250076
  0
VERTEX
  8
RA_6881
 62
     7
 10
550891
 20
3250059
  0
VERTEX
  8
RA_6881
 62
     7
 10
550870
 20
3250037
  0
VERTEX
  8
RA_6881
 62
     7
 10
550862
 20
3250019
  0
VERTEX
  8
RA_6881
 62
     7
 10
550872
 20
3250008
  0
VERTEX
  8
RA_6881
 62
     7
 10
550897
 20
3250009
  0
VERTEX
  8
RA_6881
 62
     7
 10
550908
 20
3250002
  0
VERTEX
  8
RA_6881
 62
     7
 10
550903
 20
3249988
  0
VERTEX
  8
RA_6881
 62
     7
 10
550883
 20
3249978
  0
VERTEX
  8
RA_6881
 62
     7
 10
550860
 20
3249957
  0
VERTEX
  8
RA_6881
 62
     7
 10
550849
 20
3249955
  0
VERTEX
  8
RA_6881
 62
     7
 10
550837
 20
3249962
  0
VERTEX
  8
RA_6881
 62
     7
 10
550829
 20
3249962
  0
VERTEX
  8
RA_6881
 62
     7
 10
550819
 20
3249960
  0
SEQEND
  0
POLYLINE
  8
RA_6881
  6
CONTINUOUS
 62
     7
 66
     1
  0
VERTEX
  8
RA_6881
 62
     7
 10
555494
 20
3255353
  0
VERTEX
  8
RA_6881
 62
     7
 10
555460
 20
3255321
  0
VERTEX
  8
RA_6881
 62
     7
 10
555425
 20
3255291
  0
VERTEX
  8
RA_6881
 62
     7
 10
555420
 20
3255278
  0
VERTEX
  8
RA_6881
 62
     7
 10
555456
 20
3255285
  0
VERTEX
  8
RA_6881
 62
     7
 10
555520
 20
3255291
  0
VERTEX
  8
RA_6881
 62
     7
 10
555561
 20
3255290
  0
VERTEX
  8
RA_6881
 62
     7
 10
555597
 20
3255303
  0
VERTEX
  8
RA_6881
 62
     7
 10
555644
 20
3255329
  0
VERTEX
  8
RA_6881
 62
     7
 10
555727
 20
3255377
  0
VERTEX
  8
RA_6881
 62
     7
 10
555782
 20
3255386
  0
VERTEX
  8
RA_6881
 62
     7
 10
555847
 20
3255404
  0
VERTEX
  8
RA_6881
 62
     7
 10
555857
 20
3255411
  0
VERTEX
  8
RA_6881
 62
     7
 10
555913
 20
3255441
  0
VERTEX
  8
RA_6881
 62
     7
 10
555948
 20
3255470
  0
VERTEX
  8
RA_6881
 62
     7
 10
555976
 20
3255502
  0
VERTEX
  8
RA_6881
 62
     7
 10
556019
 20
3255535
  0
VERTEX
  8
RA_6881
 62
     7
 10
556066
 20
3255558
  0
VERTEX
  8
RA_6881
 62
     7
 10
556115
 20
3255583
  0
VERTEX
  8
RA_6881
 62
     7
 10
556135
 20
3255601
  0
VERTEX
  8
RA_6881
 62
     7
 10
556139
 20
3255622
  0
VERTEX
  8
RA_6881
 62
     7
 10
556117
 20
3255634
  0
VERTEX
  8
RA_6881
 62
     7
 10
555978
 20
3255631
  0
VERTEX
  8
RA_6881
 62
     7
 10
555934
 20
3255634
  0
VERTEX
  8
RA_6881
 62
     7
 10
555862
 20
3255637
  0
VERTEX
  8
RA_6881
 62
     7
 10
555833
 20
3255622
  0
VERTEX
  8
RA_6881
 62
     7
 10
555786
 20
3255599
  0
VERTEX
  8
RA_6881
 62
     7
 10
555774
 20
3255576
  0
VERTEX
  8
RA_6881
 62
     7
 10
555780
 20
3255558
  0
VERTEX
  8
RA_6881
 62
     7
 10
555775
 20
3255553
  0
VERTEX
  8
RA_6881
 62
     7
 10
555769
 20
3255544
  0
VERTEX
  8
RA_6881
 62
     7
 10
555742
 20
3255538
  0
VERTEX
  8
RA_6881
 62
     7
 10
555706
 20
3255557
  0
VERTEX
  8
RA_6881
 62
     7
 10
555669
 20
3255576
  0
VERTEX
  8
RA_6881
 62
     7
 10
555636
 20
3255578
  0
VERTEX
  8
RA_6881
 62
     7
 10
555613
 20
3255561
  0
VERTEX
  8
RA_6881
 62
     7
 10
555574
 20
3255562
  0
VERTEX
  8
RA_6881
 62
     7
 10
555556
 20
3255546
  0
VERTEX
  8
RA_6881
 62
     7
 10
555560
 20
3255526
  0
VERTEX
  8
RA_6881
 62
     7
 10
555562
 20
3255487
  0
VERTEX
  8
RA_6881
 62
     7
 10
555560
 20
3255437
  0
VERTEX
  8
RA_6881
 62
     7
 10
555557
 20
3255413
  0
VERTEX
  8
RA_6881
 62
     7
 10
555549
 20
3255393
  0
VERTEX
  8
RA_6881
 62
     7
 10
555535
 20
3255378
  0
VERTEX
  8
RA_6881
 62
     7
 10
555494
 20
3255353
  0
SEQEND
  0
POLYLINE
  8
RA_6881
  6
CONTINUOUS
 62
     7
 66
     1
  0
VERTEX
  8
RA_6881
 62
     7
 10
554010
 20
3253515
  0
VERTEX
  8
RA_6881
 62
     7
 10
553998
 20
3253482
  0
VERTEX
  8
RA_6881
 62
     7
 10
554001
 20
3253465
  0
VERTEX
  8
RA_6881
 62
     7
 10
554020
 20
3253459
  0
VERTEX
  8
RA_6881
 62
     7
 10
554070
 20
3253482
  0
VERTEX
  8
RA_6881
 62
     7
 10
554113
 20
3253495
  0
VERTEX
  8
RA_6881
 62
     7
 10
554174
 20
3253507
  0
VERTEX
  8
RA_6881
 62
     7
 10
554203
 20
3253524
  0
VERTEX
  8
RA_6881
 62
     7
 10
554235
 20
3253547
  0
VERTEX
  8
RA_6881
 62
     7
 10
554253
 20
3253574
  0
VERTEX
  8
RA_6881
 62
     7
 10
554284
 20
3253655
  0
VERTEX
  8
RA_6881
 62
     7
 10
554322
 20
3253743
  0
VERTEX
  8
RA_6881
 62
     7
 10
554339
 20
3253805
  0
VERTEX
  8
RA_6881
 62
     7
 10
554332
 20
3253847
  0
VERTEX
  8
RA_6881
 62
     7
 10
554320
 20
3253870
  0
VERTEX
  8
RA_6881
 62
     7
 10
554324
 20
3253895
  0
VERTEX
  8
RA_6881
 62
     7
 10
554340
 20
3253922
  0
VERTEX
  8
RA_6881
 62
     7
 10
554345
 20
3253948
  0
VERTEX
  8
RA_6881
 62
     7
 10
554352
 20
3253978
  0
VERTEX
  8
RA_6881
 62
     7
 10
554372
 20
3254082
  0
VERTEX
  8
RA_6881
 62
     7
 10
554369
 20
3254124
  0
VERTEX
  8
RA_6881
 62
     7
 10
554413
 20
3254213
  0
VERTEX
  8
RA_6881
 62
     7
 10
554458
 20
3254292
  0
VERTEX
  8
RA_6881
 62
     7
 10
554478
 20
3254346
  0
VERTEX
  8
RA_6881
 62
     7
 10
554490
 20
3254412
  0
VERTEX
  8
RA_6881
 62
     7
 10
554502
 20
3254442
  0
VERTEX
  8
RA_6881
 62
     7
 10
554531
 20
3254502
  0
VERTEX
  8
RA_6881
 62
     7
 10
554558
 20
3254569
  0
VERTEX
  8
RA_6881
 62
     7
 10
554577
 20
3254596
  0
VERTEX
  8
RA_6881
 62
     7
 10
554574
 20
3254613
  0
VERTEX
  8
RA_6881
 62
     7
 10
554560
 20
3254619
  0
VERTEX
  8
RA_6881
 62
     7
 10
554465
 20
3254523
  0
VERTEX
  8
RA_6881
 62
     7
 10
554456
 20
3254490
  0
VERTEX
  8
RA_6881
 62
     7
 10
554430
 20
3254448
  0
VERTEX
  8
RA_6881
 62
     7
 10
554402
 20
3254417
  0
VERTEX
  8
RA_6881
 62
     7
 10
554375
 20
3254396
  0
VERTEX
  8
RA_6881
 62
     7
 10
554340
 20
3254373
  0
VERTEX
  8
RA_6881
 62
     7
 10
554321
 20
3254348
  0
VERTEX
  8
RA_6881
 62
     7
 10
554291
 20
3254283
  0
VERTEX
  8
RA_6881
 62
     7
 10
554268
 20
3254225
  0
VERTEX
  8
RA_6881
 62
     7
 10
554268
 20
3254193
  0
VERTEX
  8
RA_6881
 62
     7
 10
554266
 20
3254169
  0
VERTEX
  8
RA_6881
 62
     7
 10
554254
 20
3254147
  0
VERTEX
  8
RA_6881
 62
     7
 10
554233
 20
3254121
  0
VERTEX
  8
RA_6881
 62
     7
 10
554211
 20
3254073
  0
VERTEX
  8
RA_6881
 62
     7
 10
554188
 20
3254033
  0
VERTEX
  8
RA_6881
 62
     7
 10
554194
 20
3254023
  0
VERTEX
  8
RA_6881
 62
     7
 10
554211
 20
3254000
  0
VERTEX
  8
RA_6881
 62
     7
 10
554220
 20
3253962
  0
VERTEX
  8
RA_6881
 62
     7
 10
554215
 20
3253923
  0
VERTEX
  8
RA_6881
 62
     7
 10
554213
 20
3253895
  0
VERTEX
  8
RA_6881
 62
     7
 10
554184
 20
3253866
  0
VERTEX
  8
RA_6881
 62
     7
 10
554151
 20
3253850
  0
VERTEX
  8
RA_6881
 62
     7
 10
554124
 20
3253829
  0
VERTEX
  8
RA_6881
 62
     7
 10
554109
 20
3253804
  0
VERTEX
  8
RA_6881
 62
     7
 10
554109
 20
3253785
  0
VERTEX
  8
RA_6881
 62
     7
 10
554107
 20
3253766
  0
VERTEX
  8
RA_6881
 62
     7
 10
554094
 20
3253760
  0
VERTEX
  8
RA_6881
 62
     7
 10
554080
 20
3253768
  0
VERTEX
  8
RA_6881
 62
     7
 10
554061
 20
3253776
  0
VERTEX
  8
RA_6881
 62
     7
 10
554036
 20
3253764
  0
VERTEX
  8
RA_6881
 62
     7
 10
554030
 20
3253741
  0
VERTEX
  8
RA_6881
 62
     7
 10
554036
 20
3253716
  0
VERTEX
  8
RA_6881
 62
     7
 10
554034
 20
3253672
  0
VERTEX
  8
RA_6881
 62
     7
 10
554028
 20
3253641
  0
VERTEX
  8
RA_6881
 62
     7
 10
554019
 20
3253620
  0
VERTEX
  8
RA_6881
 62
     7
 10
554005
 20
3253579
  0
VERTEX
  8
RA_6881
 62
     7
 10
554007
 20
3253562
  0
VERTEX
  8
RA_6881
 62
     7
 10
554010
 20
3253515
  0
SEQEND
  0
POLYLINE
  8
RA_6881
  6
CONTINUOUS
 62
     7
 66
     1
  0
VERTEX
  8
RA_6881
 62
     7
 10
548566
 20
3248293
  0
VERTEX
  8
RA_6881
 62
     7
 10
548584
 20
3248293
  0
VERTEX
  8
RA_6881
 62
     7
 10
548608
 20
3248278
  0
VERTEX
  8
RA_6881
 62
     7
 10
548641
 20
3248270
  0
VERTEX
  8
RA_6881
 62
     7
 10
548675
 20
3248273
  0
VERTEX
  8
RA_6881
 62
     7
 10
548714
 20
3248280
  0
VERTEX
  8
RA_6881
 62
     7
 10
548742
 20
3248289
  0
VERTEX
  8
RA_6881
 62
     7
 10
548782
 20
3248298
  0
VERTEX
  8
RA_6881
 62
     7
 10
548824
 20
3248309
  0
VERTEX
  8
RA_6881
 62
     7
 10
548862
 20
3248311
  0
VERTEX
  8
RA_6881
 62
     7
 10
548903
 20
3248313
  0
VERTEX
  8
RA_6881
 62
     7
 10
548939
 20
3248321
  0
VERTEX
  8
RA_6881
 62
     7
 10
548978
 20
3248340
  0
VERTEX
  8
RA_6881
 62
     7
 10
549017
 20
3248379
  0
VERTEX
  8
RA_6881
 62
     7
 10
549055
 20
3248406
  0
VERTEX
  8
RA_6881
 62
     7
 10
549099
 20
3248439
  0
VERTEX
  8
RA_6881
 62
     7
 10
549141
 20
3248456
  0
VERTEX
  8
RA_6881
 62
     7
 10
549201
 20
3248500
  0
VERTEX
  8
RA_6881
 62
     7
 10
549239
 20
3248533
  0
VERTEX
  8
RA_6881
 62
     7
 10
549283
 20
3248578
  0
VERTEX
  8
RA_6881
 62
     7
 10
549340
 20
3248659
  0
VERTEX
  8
RA_6881
 62
     7
 10
549365
 20
3248722
  0
SEQEND
  0
POLYLINE
  8
RA_6881
  6
CONTINUOUS
 62
     7
 66
     1
  0
VERTEX
  8
RA_6881
 62
     7
 10
547516
 20
3248338
  0
VERTEX
  8
RA_6881
 62
     7
 10
547556
 20
3248321
  0
VERTEX
  8
RA_6881
 62
     7
 10
547613
 20
3248286
  0
SEQEND
  0
POLYLINE
  8
RA_6881
  6
CONTINUOUS
 62
     7
 66
     1
  0
VERTEX
  8
RA_6881
 62
     7
 10
548169
 20
3248191
  0
VERTEX
  8
RA_6881
 62
     7
 10
548198
 20
3248204
  0
VERTEX
  8
RA_6881
 62
     7
 10
548230
 20
3248214
  0
SEQEND
  0
POLYLINE
  8
RA_6881
  6
CONTINUOUS
 62
     7
 66
     1
  0
VERTEX
  8
RA_6881
 62
     7
 10
558832
 20
3256431
  0
VERTEX
  8
RA_6881
 62
     7
 10
558828
 20
3256456
  0
VERTEX
  8
RA_6881
 62
     7
 10
558838
 20
3256482
  0
VERTEX
  8
RA_6881
 62
     7
 10
558853
 20
3256515
  0
VERTEX
  8
RA_6881
 62
     7
 10
558876
 20
3256564
  0
VERTEX
  8
RA_6881
 62
     7
 10
558915
 20
3256566
  0
VERTEX
  8
RA_6881
 62
     7
 10
558963
 20
3256568
  0
VERTEX
  8
RA_6881
 62
     7
 10
559020
 20
3256558
  0
VERTEX
  8
RA_6881
 62
     7
 10
559074
 20
3256549
  0
VERTEX
  8
RA_6881
 62
     7
 10
559121
 20
3256552
  0
VERTEX
  8
RA_6881
 62
     7
 10
559182
 20
3256556
  0
VERTEX
  8
RA_6881
 62
     7
 10
559218
 20
3256572
  0
VERTEX
  8
RA_6881
 62
     7
 10
559265
 20
3256588
  0
VERTEX
  8
RA_6881
 62
     7
 10
559309
 20
3256613
  0
VERTEX
  8
RA_6881
 62
     7
 10
559360
 20
3256649
  0
VERTEX
  8
RA_6881
 62
     7
 10
559401
 20
3256676
  0
VERTEX
  8
RA_6881
 62
     7
 10
559436
 20
3256678
  0
VERTEX
  8
RA_6881
 62
     7
 10
559524
 20
3256676
  0
VERTEX
  8
RA_6881
 62
     7
 10
559639
 20
3256663
  0
VERTEX
  8
RA_6881
 62
     7
 10
559726
 20
3256631
  0
VERTEX
  8
RA_6881
 62
     7
 10
559693
 20
3256606
  0
VERTEX
  8
RA_6881
 62
     7
 10
559655
 20
3256570
  0
VERTEX
  8
RA_6881
 62
     7
 10
559605
 20
3256545
  0
VERTEX
  8
RA_6881
 62
     7
 10
559520
 20
3256517
  0
VERTEX
  8
RA_6881
 62
     7
 10
559450
 20
3256494
  0
VERTEX
  8
RA_6881
 62
     7
 10
559330
 20
3256454
  0
VERTEX
  8
RA_6881
 62
     7
 10
559227
 20
3256419
  0
VERTEX
  8
RA_6881
 62
     7
 10
559108
 20
3256417
  0
VERTEX
  8
RA_6881
 62
     7
 10
558999
 20
3256419
  0
VERTEX
  8
RA_6881
 62
     7
 10
558894
 20
3256418
  0
VERTEX
  8
RA_6881
 62
     7
 10
558832
 20
3256431
  0
SEQEND
  0
POLYLINE
  8
RA_6881
  6
CONTINUOUS
 62
     7
 66
     1
  0
VERTEX
  8
RA_6881
 62
     7
 10
559549
 20
3256401
  0
VERTEX
  8
RA_6881
 62
     7
 10
559672
 20
3256483
  0
VERTEX
  8
RA_6881
 62
     7
 10
559747
 20
3256537
  0
VERTEX
  8
RA_6881
 62
     7
 10
559847
 20
3256573
  0
VERTEX
  8
RA_6881
 62
     7
 10
559892
 20
3256577
  0
VERTEX
  8
RA_6881
 62
     7
 10
559949
 20
3256581
  0
VERTEX
  8
RA_6881
 62
     7
 10
560126
 20
3256558
  0
VERTEX
  8
RA_6881
 62
     7
 10
560264
 20
3256528
  0
VERTEX
  8
RA_6881
 62
     7
 10
560320
 20
3256497
  0
VERTEX
  8
RA_6881
 62
     7
 10
560350
 20
3256481
  0
VERTEX
  8
RA_6881
 62
     7
 10
560406
 20
3256451
  0
VERTEX
  8
RA_6881
 62
     7
 10
560286
 20
3256430
  0
VERTEX
  8
RA_6881
 62
     7
 10
560216
 20
3256428
  0
VERTEX
  8
RA_6881
 62
     7
 10
560157
 20
3256434
  0
VERTEX
  8
RA_6881
 62
     7
 10
560138
 20
3256426
  0
VERTEX
  8
RA_6881
 62
     7
 10
560107
 20
3256413
  0
VERTEX
  8
RA_6881
 62
     7
 10
560054
 20
3256397
  0
VERTEX
  8
RA_6881
 62
     7
 10
560048
 20
3256394
  0
VERTEX
  8
RA_6881
 62
     7
 10
560001
 20
3256378
  0
VERTEX
  8
RA_6881
 62
     7
 10
559969
 20
3256371
  0
VERTEX
  8
RA_6881
 62
     7
 10
559952
 20
3256368
  0
VERTEX
  8
RA_6881
 62
     7
 10
559905
 20
3256374
  0
VERTEX
  8
RA_6881
 62
     7
 10
559812
 20
3256393
  0
VERTEX
  8
RA_6881
 62
     7
 10
559787
 20
3256415
  0
VERTEX
  8
RA_6881
 62
     7
 10
559743
 20
3256415
  0
VERTEX
  8
RA_6881
 62
     7
 10
559687
 20
3256401
  0
VERTEX
  8
RA_6881
 62
     7
 10
559628
 20
3256407
  0
VERTEX
  8
RA_6881
 62
     7
 10
559593
 20
3256406
  0
VERTEX
  8
RA_6881
 62
     7
 10
559553
 20
3256402
  0
VERTEX
  8
RA_6881
 62
     7
 10
559549
 20
3256401
  0
SEQEND
  0
POLYLINE
  8
RA_6881
  6
CONTINUOUS
 62
     7
 66
     1
  0
VERTEX
  8
RA_6881
 62
     7
 10
534948
 20
3236384
  0
VERTEX
  8
RA_6881
 62
     7
 10
534972
 20
3236390
  0
VERTEX
  8
RA_6881
 62
     7
 10
535071
 20
3236418
  0
VERTEX
  8
RA_6881
 62
     7
 10
535146
 20
3236427
  0
VERTEX
  8
RA_6881
 62
     7
 10
535167
 20
3236427
  0
VERTEX
  8
RA_6881
 62
     7
 10
535274
 20
3236424
  0
VERTEX
  8
RA_6881
 62
     7
 10
535410
 20
3236445
  0
VERTEX
  8
RA_6881
 62
     7
 10
535476
 20
3236452
  0
VERTEX
  8
RA_6881
 62
     7
 10
535562
 20
3236467
  0
VERTEX
  8
RA_6881
 62
     7
 10
535755
 20
3236531
  0
VERTEX
  8
RA_6881
 62
     7
 10
535872
 20
3236576
  0
VERTEX
  8
RA_6881
 62
     7
 10
535954
 20
3236617
  0
VERTEX
  8
RA_6881
 62
     7
 10
536042
 20
3236677.0001
  0
VERTEX
  8
RA_6881
 62
     7
 10
536117
 20
3236748.0001
  0
VERTEX
  8
RA_6881
 62
     7
 10
536212
 20
3236844
  0
VERTEX
  8
RA_6881
 62
     7
 10
536296
 20
3236924
  0
VERTEX
  8
RA_6881
 62
     7
 10
536304
 20
3236936
  0
VERTEX
  8
RA_6881
 62
     7
 10
536358
 20
3236995
  0
VERTEX
  8
RA_6881
 62
     7
 10
536389
 20
3237020
  0
VERTEX
  8
RA_6881
 62
     7
 10
536448
 20
3237102
  0
VERTEX
  8
RA_6881
 62
     7
 10
536484
 20
3237158
  0
VERTEX
  8
RA_6881
 62
     7
 10
536524
 20
3237208
  0
VERTEX
  8
RA_6881
 62
     7
 10
536566
 20
3237271
  0
VERTEX
  8
RA_6881
 62
     7
 10
536618
 20
3237333
  0
VERTEX
  8
RA_6881
 62
     7
 10
536656
 20
3237372
  0
VERTEX
  8
RA_6881
 62
     7
 10
536687
 20
3237414
  0
VERTEX
  8
RA_6881
 62
     7
 10
536712
 20
3237458
  0
VERTEX
  8
RA_6881
 62
     7
 10
536730
 20
3237493
  0
VERTEX
  8
RA_6881
 62
     7
 10
536773
 20
3237615
  0
VERTEX
  8
RA_6881
 62
     7
 10
536811
 20
3237709
  0
VERTEX
  8
RA_6881
 62
     7
 10
536838
 20
3237799
  0
VERTEX
  8
RA_6881
 62
     7
 10
536870
 20
3237871
  0
VERTEX
  8
RA_6881
 62
     7
 10
536880
 20
3237908
  0
VERTEX
  8
RA_6881
 62
     7
 10
536907
 20
3237926
  0
VERTEX
  8
RA_6881
 62
     7
 10
536940
 20
3237965
  0
VERTEX
  8
RA_6881
 62
     7
 10
536967
 20
3238048
  0
VERTEX
  8
RA_6881
 62
     7
 10
536988
 20
3238121
  0
VERTEX
  8
RA_6881
 62
     7
 10
537009
 20
3238129
  0
VERTEX
  8
RA_6881
 62
     7
 10
537027
 20
3238119
  0
VERTEX
  8
RA_6881
 62
     7
 10
537036
 20
3238100
  0
VERTEX
  8
RA_6881
 62
     7
 10
537021
 20
3238000
  0
VERTEX
  8
RA_6881
 62
     7
 10
536996
 20
3237923
  0
VERTEX
  8
RA_6881
 62
     7
 10
536985
 20
3237833
  0
VERTEX
  8
RA_6881
 62
     7
 10
536976
 20
3237759
  0
VERTEX
  8
RA_6881
 62
     7
 10
536960
 20
3237637
  0
VERTEX
  8
RA_6881
 62
     7
 10
536950
 20
3237575
  0
VERTEX
  8
RA_6881
 62
     7
 10
536943
 20
3237501
  0
VERTEX
  8
RA_6881
 62
     7
 10
536932
 20
3237472
  0
VERTEX
  8
RA_6881
 62
     7
 10
536919
 20
3237422
  0
VERTEX
  8
RA_6881
 62
     7
 10
536895
 20
3237395
  0
VERTEX
  8
RA_6881
 62
     7
 10
536892
 20
3237392
  0
VERTEX
  8
RA_6881
 62
     7
 10
536877
 20
3237375
  0
VERTEX
  8
RA_6881
 62
     7
 10
536861
 20
3237356
  0
VERTEX
  8
RA_6881
 62
     7
 10
536804
 20
3237308
  0
VERTEX
  8
RA_6881
 62
     7
 10
536727
 20
3237220
  0
VERTEX
  8
RA_6881
 62
     7
 10
536655
 20
3237140
  0
VERTEX
  8
RA_6881
 62
     7
 10
536580
 20
3237074
  0
VERTEX
  8
RA_6881
 62
     7
 10
536555
 20
3237032
  0
VERTEX
  8
RA_6881
 62
     7
 10
536555
 20
3236996
  0
VERTEX
  8
RA_6881
 62
     7
 10
536526
 20
3236971
  0
VERTEX
  8
RA_6881
 62
     7
 10
536464
 20
3236917
  0
VERTEX
  8
RA_6881
 62
     7
 10
536463
 20
3236915
  0
VERTEX
  8
RA_6881
 62
     7
 10
536458
 20
3236903
  0
VERTEX
  8
RA_6881
 62
     7
 10
536464
 20
3236891
  0
VERTEX
  8
RA_6881
 62
     7
 10
536448
 20
3236858
  0
VERTEX
  8
RA_6881
 62
     7
 10
536436
 20
3236840
  0
VERTEX
  8
RA_6881
 62
     7
 10
536418
 20
3236821
  0
VERTEX
  8
RA_6881
 62
     7
 10
536389
 20
3236807
  0
VERTEX
  8
RA_6881
 62
     7
 10
536352
 20
3236801
  0
VERTEX
  8
RA_6881
 62
     7
 10
536318
 20
3236780
  0
VERTEX
  8
RA_6881
 62
     7
 10
536299
 20
3236765
  0
VERTEX
  8
RA_6881
 62
     7
 10
536208
 20
3236690.0001
  0
VERTEX
  8
RA_6881
 62
     7
 10
536153
 20
3236651
  0
VERTEX
  8
RA_6881
 62
     7
 10
536097
 20
3236624
  0
VERTEX
  8
RA_6881
 62
     7
 10
536067
 20
3236594
  0
VERTEX
  8
RA_6881
 62
     7
 10
536044
 20
3236567
  0
VERTEX
  8
RA_6881
 62
     7
 10
536013
 20
3236552
  0
VERTEX
  8
RA_6881
 62
     7
 10
535850
 20
3236490
  0
VERTEX
  8
RA_6881
 62
     7
 10
535725
 20
3236431
  0
VERTEX
  8
RA_6881
 62
     7
 10
535580
 20
3236360
  0
SEQEND
  0
POLYLINE
  8
RA_6881
  6
CONTINUOUS
 62
     7
 66
     1
  0
VERTEX
  8
RA_6881
 62
     7
 10
564172
 20
3256854
  0
VERTEX
  8
RA_6881
 62
     7
 10
564157
 20
3256851
  0
VERTEX
  8
RA_6881
 62
     7
 10
564093
 20
3256846
  0
VERTEX
  8
RA_6881
 62
     7
 10
563922
 20
3256774
  0
VERTEX
  8
RA_6881
 62
     7
 10
563846
 20
3256739
  0
VERTEX
  8
RA_6881
 62
     7
 10
563795
 20
3256714
  0
VERTEX
  8
RA_6881
 62
     7
 10
563747
 20
3256703
  0
VERTEX
  8
RA_6881
 62
     7
 10
563714
 20
3256697
  0
VERTEX
  8
RA_6881
 62
     7
 10
563673
 20
3256678
  0
VERTEX
  8
RA_6881
 62
     7
 10
563623
 20
3256662
  0
VERTEX
  8
RA_6881
 62
     7
 10
563580
 20
3256636
  0
VERTEX
  8
RA_6881
 62
     7
 10
563558
 20
3256615
  0
VERTEX
  8
RA_6881
 62
     7
 10
563536
 20
3256598
  0
VERTEX
  8
RA_6881
 62
     7
 10
563506
 20
3256586
  0
VERTEX
  8
RA_6881
 62
     7
 10
563473
 20
3256583
  0
VERTEX
  8
RA_6881
 62
     7
 10
563449
 20
3256584
  0
VERTEX
  8
RA_6881
 62
     7
 10
563421
 20
3256596
  0
VERTEX
  8
RA_6881
 62
     7
 10
563383
 20
3256611
  0
VERTEX
  8
RA_6881
 62
     7
 10
563334
 20
3256609
  0
VERTEX
  8
RA_6881
 62
     7
 10
563290
 20
3256613
  0
VERTEX
  8
RA_6881
 62
     7
 10
563238
 20
3256615
  0
VERTEX
  8
RA_6881
 62
     7
 10
563206
 20
3256611
  0
VERTEX
  8
RA_6881
 62
     7
 10
563132
 20
3256588
  0
VERTEX
  8
RA_6881
 62
     7
 10
563097
 20
3256562
  0
VERTEX
  8
RA_6881
 62
     7
 10
563066
 20
3256554
  0
VERTEX
  8
RA_6881
 62
     7
 10
563055
 20
3256543
  0
VERTEX
  8
RA_6881
 62
     7
 10
563084
 20
3256532
  0
VERTEX
  8
RA_6881
 62
     7
 10
563180
 20
3256516
  0
VERTEX
  8
RA_6881
 62
     7
 10
563241
 20
3256520
  0
VERTEX
  8
RA_6881
 62
     7
 10
563256
 20
3256529
  0
VERTEX
  8
RA_6881
 62
     7
 10
563275
 20
3256536
  0
VERTEX
  8
RA_6881
 62
     7
 10
563295
 20
3256526
  0
VERTEX
  8
RA_6881
 62
     7
 10
563318
 20
3256509
  0
VERTEX
  8
RA_6881
 62
     7
 10
563340
 20
3256507
  0
VERTEX
  8
RA_6881
 62
     7
 10
563412
 20
3256524
  0
VERTEX
  8
RA_6881
 62
     7
 10
563455
 20
3256528
  0
VERTEX
  8
RA_6881
 62
     7
 10
563503
 20
3256532
  0
VERTEX
  8
RA_6881
 62
     7
 10
563627
 20
3256528
  0
VERTEX
  8
RA_6881
 62
     7
 10
563676
 20
3256531
  0
VERTEX
  8
RA_6881
 62
     7
 10
563729
 20
3256545
  0
VERTEX
  8
RA_6881
 62
     7
 10
563793
 20
3256562
  0
VERTEX
  8
RA_6881
 62
     7
 10
563841
 20
3256573
  0
VERTEX
  8
RA_6881
 62
     7
 10
563871
 20
3256587
  0
VERTEX
  8
RA_6881
 62
     7
 10
563941
 20
3256622
  0
VERTEX
  8
RA_6881
 62
     7
 10
564015
 20
3256669
  0
VERTEX
  8
RA_6881
 62
     7
 10
564066
 20
3256694
  0
VERTEX
  8
RA_6881
 62
     7
 10
564117
 20
3256709
  0
VERTEX
  8
RA_6881
 62
     7
 10
564170
 20
3256724
  0
VERTEX
  8
RA_6881
 62
     7
 10
564211
 20
3256732
  0
VERTEX
  8
RA_6881
 62
     7
 10
564217
 20
3256735
  0
VERTEX
  8
RA_6881
 62
     7
 10
564245
 20
3256753
  0
VERTEX
  8
RA_6881
 62
     7
 10
564313
 20
3256789
  0
VERTEX
  8
RA_6881
 62
     7
 10
564365
 20
3256802
  0
VERTEX
  8
RA_6881
 62
     7
 10
564422
 20
3256818
  0
VERTEX
  8
RA_6881
 62
     7
 10
564471
 20
3256831
  0
VERTEX
  8
RA_6881
 62
     7
 10
564498
 20
3256857
  0
VERTEX
  8
RA_6881
 62
     7
 10
564401
 20
3256874
  0
VERTEX
  8
RA_6881
 62
     7
 10
564346
 20
3256874
  0
VERTEX
  8
RA_6881
 62
     7
 10
564229
 20
3256864
  0
VERTEX
  8
RA_6881
 62
     7
 10
564172
 20
3256854
  0
SEQEND
  0
POLYLINE
  8
RA_6881
  6
CONTINUOUS
 62
     7
 66
     1
  0
VERTEX
  8
RA_6881
 62
     7
 10
564385
 20
3257009
  0
VERTEX
  8
RA_6881
 62
     7
 10
564424
 20
3257026
  0
VERTEX
  8
RA_6881
 62
     7
 10
564453
 20
3257044
  0
VERTEX
  8
RA_6881
 62
     7
 10
564486
 20
3257068
  0
VERTEX
  8
RA_6881
 62
     7
 10
564524
 20
3257095
  0
VERTEX
  8
RA_6881
 62
     7
 10
564656
 20
3257147
  0
SEQEND
  0
POLYLINE
  8
RA_6881
  6
CONTINUOUS
 62
     7
 66
     1
  0
VERTEX
  8
RA_6881
 62
     7
 10
564656
 20
3257147
  0
VERTEX
  8
RA_6881
 62
     7
 10
564657
 20
3256972
  0
SEQEND
  0
POLYLINE
  8
RA_6881
  6
CONTINUOUS
 62
     7
 66
     1
  0
VERTEX
  8
RA_6881
 62
     7
 10
564657
 20
3256972
  0
VERTEX
  8
RA_6881
 62
     7
 10
564631
 20
3256980
  0
VERTEX
  8
RA_6881
 62
     7
 10
564545
 20
3256984
  0
VERTEX
  8
RA_6881
 62
     7
 10
564515
 20
3256991
  0
VERTEX
  8
RA_6881
 62
     7
 10
564487
 20
3257002
  0
VERTEX
  8
RA_6881
 62
     7
 10
564459
 20
3257012
  0
VERTEX
  8
RA_6881
 62
     7
 10
564385
 20
3257009
  0
SEQEND
  0
ENDSEC
  0
EOF
