  0
SECTION
  2
HEADER
  9
$EXTMIN
 10
467612
 20
3235684
  9
$EXTMAX
 10
500000
 20
3263429.77
  9
$CECOLOR
 62
     0
  9
$CELTYPE
  6
CONTINUOUS
  9
$TEXTSTYLE
  7
STANDARD
  0
ENDSEC
  0
SECTION
  2
TABLES
  0
TABLE
  2
LTYPE
 70
     1
  0
LTYPE
  2
CONTINUOUS
 70
    64
  3
Solid line
 72
    65
 73
     0
 40
0.0
  0
ENDTAB
  0
TABLE
  2
LAYER
 70
    1
  0
LAYER
  2
HA_6291
 70
   64
 62
56
  6
CONTINUOUS
  0
ENDTAB
  0
TABLE
  2
STYLE
 70
     0
  0
ENDTAB
  0
ENDSEC
  0
SECTION
  2
BLOCKS
  0
ENDSEC
  0
SECTION
  2
ENTITIES
  0
POLYLINE
  8
HA_6291
  6
CONTINUOUS
 62
     4
 66
     1
  0
VERTEX
  8
HA_6291
 62
     4
 10
487360
 20
3249070
  0
VERTEX
  8
HA_6291
 62
     4
 10
487360
 20
3249078
  0
VERTEX
  8
HA_6291
 62
     4
 10
487363
 20
3249084
  0
VERTEX
  8
HA_6291
 62
     4
 10
487371
 20
3249088
  0
SEQEND
  0
POLYLINE
  8
HA_6291
  6
CONTINUOUS
 62
     4
 66
     1
  0
VERTEX
  8
HA_6291
 62
     4
 10
482146
 20
3249964
  0
VERTEX
  8
HA_6291
 62
     4
 10
482132
 20
3249915
  0
VERTEX
  8
HA_6291
 62
     4
 10
482139
 20
3249902
  0
VERTEX
  8
HA_6291
 62
     4
 10
482149
 20
3249891
  0
VERTEX
  8
HA_6291
 62
     4
 10
482174
 20
3249876
  0
VERTEX
  8
HA_6291
 62
     4
 10
482194
 20
3249875
  0
VERTEX
  8
HA_6291
 62
     4
 10
482219
 20
3249880
  0
VERTEX
  8
HA_6291
 62
     4
 10
482241
 20
3249895
  0
SEQEND
  0
POLYLINE
  8
HA_6291
  6
CONTINUOUS
 62
     4
 66
     1
  0
VERTEX
  8
HA_6291
 62
     4
 10
468361
 20
3256501
  0
VERTEX
  8
HA_6291
 62
     4
 10
468364
 20
3256495
  0
VERTEX
  8
HA_6291
 62
     4
 10
468366
 20
3256487
  0
VERTEX
  8
HA_6291
 62
     4
 10
468366
 20
3256476
  0
VERTEX
  8
HA_6291
 62
     4
 10
468363
 20
3256466
  0
VERTEX
  8
HA_6291
 62
     4
 10
468358
 20
3256460
  0
VERTEX
  8
HA_6291
 62
     4
 10
468352
 20
3256455
  0
VERTEX
  8
HA_6291
 62
     4
 10
468340
 20
3256456
  0
VERTEX
  8
HA_6291
 62
     4
 10
468329
 20
3256460
  0
VERTEX
  8
HA_6291
 62
     4
 10
468317
 20
3256467
  0
VERTEX
  8
HA_6291
 62
     4
 10
468308
 20
3256473
  0
VERTEX
  8
HA_6291
 62
     4
 10
468300
 20
3256478
  0
VERTEX
  8
HA_6291
 62
     4
 10
468293
 20
3256483
  0
VERTEX
  8
HA_6291
 62
     4
 10
468293
 20
3256486
  0
VERTEX
  8
HA_6291
 62
     4
 10
468291
 20
3256492
  0
VERTEX
  8
HA_6291
 62
     4
 10
468293
 20
3256505
  0
SEQEND
  0
POLYLINE
  8
HA_6291
  6
CONTINUOUS
 62
     4
 66
     1
  0
VERTEX
  8
HA_6291
 62
     4
 10
468293
 20
3256505
  0
VERTEX
  8
HA_6291
 62
     4
 10
468302
 20
3256518
  0
VERTEX
  8
HA_6291
 62
     4
 10
468312
 20
3256524
  0
VERTEX
  8
HA_6291
 62
     4
 10
468317
 20
3256526
  0
VERTEX
  8
HA_6291
 62
     4
 10
468328
 20
3256523
  0
VERTEX
  8
HA_6291
 62
     4
 10
468336
 20
3256520
  0
VERTEX
  8
HA_6291
 62
     4
 10
468342
 20
3256517
  0
VERTEX
  8
HA_6291
 62
     4
 10
468351
 20
3256510
  0
VERTEX
  8
HA_6291
 62
     4
 10
468361
 20
3256501
  0
SEQEND
  0
POLYLINE
  8
HA_6291
  6
CONTINUOUS
 62
     4
 66
     1
  0
VERTEX
  8
HA_6291
 62
     4
 10
484859
 20
3247462
  0
VERTEX
  8
HA_6291
 62
     4
 10
484844
 20
3247446
  0
VERTEX
  8
HA_6291
 62
     4
 10
484832
 20
3247433
  0
VERTEX
  8
HA_6291
 62
     4
 10
484824
 20
3247428
  0
VERTEX
  8
HA_6291
 62
     4
 10
484805
 20
3247427
  0
VERTEX
  8
HA_6291
 62
     4
 10
484800
 20
3247431
  0
VERTEX
  8
HA_6291
 62
     4
 10
484783
 20
3247440
  0
VERTEX
  8
HA_6291
 62
     4
 10
484777
 20
3247450
  0
VERTEX
  8
HA_6291
 62
     4
 10
484767
 20
3247482
  0
VERTEX
  8
HA_6291
 62
     4
 10
484767
 20
3247505
  0
VERTEX
  8
HA_6291
 62
     4
 10
484780
 20
3247522
  0
SEQEND
  0
POLYLINE
  8
HA_6291
  6
CONTINUOUS
 62
     4
 66
     1
  0
VERTEX
  8
HA_6291
 62
     4
 10
484734
 20
3250815
  0
VERTEX
  8
HA_6291
 62
     4
 10
484719
 20
3250811
  0
VERTEX
  8
HA_6291
 62
     4
 10
484696
 20
3250800
  0
VERTEX
  8
HA_6291
 62
     4
 10
484666
 20
3250774
  0
VERTEX
  8
HA_6291
 62
     4
 10
484655
 20
3250735
  0
VERTEX
  8
HA_6291
 62
     4
 10
484663
 20
3250715
  0
VERTEX
  8
HA_6291
 62
     4
 10
484673
 20
3250700
  0
VERTEX
  8
HA_6291
 62
     4
 10
484679
 20
3250689
  0
VERTEX
  8
HA_6291
 62
     4
 10
484689
 20
3250684
  0
VERTEX
  8
HA_6291
 62
     4
 10
484704
 20
3250678
  0
VERTEX
  8
HA_6291
 62
     4
 10
484714
 20
3250678
  0
VERTEX
  8
HA_6291
 62
     4
 10
484737
 20
3250679
  0
VERTEX
  8
HA_6291
 62
     4
 10
484755
 20
3250679
  0
SEQEND
  0
POLYLINE
  8
HA_6291
  6
CONTINUOUS
 62
     4
 66
     1
  0
VERTEX
  8
HA_6291
 62
     4
 10
482241
 20
3249895
  0
VERTEX
  8
HA_6291
 62
     4
 10
482251
 20
3249914
  0
VERTEX
  8
HA_6291
 62
     4
 10
482252
 20
3249943
  0
VERTEX
  8
HA_6291
 62
     4
 10
482242
 20
3249965
  0
VERTEX
  8
HA_6291
 62
     4
 10
482229
 20
3249984
  0
VERTEX
  8
HA_6291
 62
     4
 10
482217
 20
3249997
  0
VERTEX
  8
HA_6291
 62
     4
 10
482201
 20
3250009
  0
VERTEX
  8
HA_6291
 62
     4
 10
482171
 20
3250004
  0
VERTEX
  8
HA_6291
 62
     4
 10
482159
 20
3249992
  0
VERTEX
  8
HA_6291
 62
     4
 10
482146
 20
3249964
  0
SEQEND
  0
POLYLINE
  8
HA_6291
  6
CONTINUOUS
 62
     4
 66
     1
  0
VERTEX
  8
HA_6291
 62
     4
 10
486092
 20
3248291
  0
VERTEX
  8
HA_6291
 62
     4
 10
486134
 20
3248279
  0
SEQEND
  0
POLYLINE
  8
HA_6291
  6
CONTINUOUS
 62
     4
 66
     1
  0
VERTEX
  8
HA_6291
 62
     4
 10
484755
 20
3250679
  0
VERTEX
  8
HA_6291
 62
     4
 10
484774
 20
3250689
  0
VERTEX
  8
HA_6291
 62
     4
 10
484785
 20
3250705
  0
VERTEX
  8
HA_6291
 62
     4
 10
484781
 20
3250720
  0
VERTEX
  8
HA_6291
 62
     4
 10
484774
 20
3250723
  0
VERTEX
  8
HA_6291
 62
     4
 10
484769
 20
3250731
  0
VERTEX
  8
HA_6291
 62
     4
 10
484759
 20
3250758
  0
VERTEX
  8
HA_6291
 62
     4
 10
484753
 20
3250784
  0
VERTEX
  8
HA_6291
 62
     4
 10
484746
 20
3250805
  0
VERTEX
  8
HA_6291
 62
     4
 10
484734
 20
3250815
  0
SEQEND
  0
POLYLINE
  8
HA_6291
  6
CONTINUOUS
 62
     4
 66
     1
  0
VERTEX
  8
HA_6291
 62
     4
 10
480519
 20
3252841
  0
VERTEX
  8
HA_6291
 62
     4
 10
480521
 20
3252851
  0
VERTEX
  8
HA_6291
 62
     4
 10
480517
 20
3252877
  0
VERTEX
  8
HA_6291
 62
     4
 10
480505
 20
3252887
  0
VERTEX
  8
HA_6291
 62
     4
 10
480498
 20
3252895
  0
VERTEX
  8
HA_6291
 62
     4
 10
480490
 20
3252903
  0
VERTEX
  8
HA_6291
 62
     4
 10
480482
 20
3252907
  0
VERTEX
  8
HA_6291
 62
     4
 10
480471
 20
3252912
  0
VERTEX
  8
HA_6291
 62
     4
 10
480460
 20
3252915
  0
VERTEX
  8
HA_6291
 62
     4
 10
480439
 20
3252912
  0
VERTEX
  8
HA_6291
 62
     4
 10
480424
 20
3252901
  0
SEQEND
  0
POLYLINE
  8
HA_6291
  6
CONTINUOUS
 62
     4
 66
     1
  0
VERTEX
  8
HA_6291
 62
     4
 10
480424
 20
3252901
  0
VERTEX
  8
HA_6291
 62
     4
 10
480418
 20
3252885
  0
VERTEX
  8
HA_6291
 62
     4
 10
480424
 20
3252873
  0
VERTEX
  8
HA_6291
 62
     4
 10
480440
 20
3252844
  0
VERTEX
  8
HA_6291
 62
     4
 10
480464
 20
3252828
  0
VERTEX
  8
HA_6291
 62
     4
 10
480482
 20
3252823
  0
VERTEX
  8
HA_6291
 62
     4
 10
480492
 20
3252823
  0
VERTEX
  8
HA_6291
 62
     4
 10
480505
 20
3252828
  0
VERTEX
  8
HA_6291
 62
     4
 10
480513
 20
3252832
  0
VERTEX
  8
HA_6291
 62
     4
 10
480519
 20
3252841
  0
SEQEND
  0
POLYLINE
  8
HA_6291
  6
CONTINUOUS
 62
     4
 66
     1
  0
VERTEX
  8
HA_6291
 62
     4
 10
480821
 20
3251170
  0
VERTEX
  8
HA_6291
 62
     4
 10
480817
 20
3251189
  0
VERTEX
  8
HA_6291
 62
     4
 10
480802
 20
3251209
  0
VERTEX
  8
HA_6291
 62
     4
 10
480779
 20
3251218
  0
VERTEX
  8
HA_6291
 62
     4
 10
480756
 20
3251229
  0
VERTEX
  8
HA_6291
 62
     4
 10
480724
 20
3251241
  0
VERTEX
  8
HA_6291
 62
     4
 10
480687
 20
3251243
  0
VERTEX
  8
HA_6291
 62
     4
 10
480670
 20
3251236
  0
VERTEX
  8
HA_6291
 62
     4
 10
480662
 20
3251220
  0
SEQEND
  0
POLYLINE
  8
HA_6291
  6
CONTINUOUS
 62
     4
 66
     1
  0
VERTEX
  8
HA_6291
 62
     4
 10
480662
 20
3251220
  0
VERTEX
  8
HA_6291
 62
     4
 10
480675
 20
3251193
  0
VERTEX
  8
HA_6291
 62
     4
 10
480681
 20
3251180
  0
VERTEX
  8
HA_6291
 62
     4
 10
480696
 20
3251164
  0
VERTEX
  8
HA_6291
 62
     4
 10
480705
 20
3251155
  0
VERTEX
  8
HA_6291
 62
     4
 10
480724
 20
3251141
  0
VERTEX
  8
HA_6291
 62
     4
 10
480756
 20
3251133
  0
VERTEX
  8
HA_6291
 62
     4
 10
480795
 20
3251131
  0
VERTEX
  8
HA_6291
 62
     4
 10
480814
 20
3251145
  0
VERTEX
  8
HA_6291
 62
     4
 10
480821
 20
3251170
  0
SEQEND
  0
POLYLINE
  8
HA_6291
  6
CONTINUOUS
 62
     4
 66
     1
  0
VERTEX
  8
HA_6291
 62
     4
 10
487843
 20
3243995
  0
VERTEX
  8
HA_6291
 62
     4
 10
487845
 20
3243998
  0
VERTEX
  8
HA_6291
 62
     4
 10
487846
 20
3244011
  0
VERTEX
  8
HA_6291
 62
     4
 10
487845
 20
3244029
  0
VERTEX
  8
HA_6291
 62
     4
 10
487842
 20
3244050
  0
VERTEX
  8
HA_6291
 62
     4
 10
487837
 20
3244072
  0
VERTEX
  8
HA_6291
 62
     4
 10
487832
 20
3244101
  0
VERTEX
  8
HA_6291
 62
     4
 10
487809
 20
3244140
  0
VERTEX
  8
HA_6291
 62
     4
 10
487773
 20
3244161
  0
VERTEX
  8
HA_6291
 62
     4
 10
487750
 20
3244166
  0
VERTEX
  8
HA_6291
 62
     4
 10
487729
 20
3244162
  0
VERTEX
  8
HA_6291
 62
     4
 10
487714
 20
3244144
  0
VERTEX
  8
HA_6291
 62
     4
 10
487687
 20
3244098
  0
SEQEND
  0
POLYLINE
  8
HA_6291
  6
CONTINUOUS
 62
     4
 66
     1
  0
VERTEX
  8
HA_6291
 62
     4
 10
487843
 20
3243995
  0
VERTEX
  8
HA_6291
 62
     4
 10
487758
 20
3244036
  0
VERTEX
  8
HA_6291
 62
     4
 10
487715
 20
3244054
  0
VERTEX
  8
HA_6291
 62
     4
 10
487695
 20
3244068
  0
VERTEX
  8
HA_6291
 62
     4
 10
487687
 20
3244098
  0
SEQEND
  0
POLYLINE
  8
HA_6291
  6
CONTINUOUS
 62
     4
 66
     1
  0
VERTEX
  8
HA_6291
 62
     4
 10
489831
 20
3252004
  0
VERTEX
  8
HA_6291
 62
     4
 10
489822
 20
3251996
  0
VERTEX
  8
HA_6291
 62
     4
 10
489822
 20
3251989
  0
VERTEX
  8
HA_6291
 62
     4
 10
489822
 20
3251968
  0
VERTEX
  8
HA_6291
 62
     4
 10
489827
 20
3251951
  0
VERTEX
  8
HA_6291
 62
     4
 10
489841
 20
3251940
  0
VERTEX
  8
HA_6291
 62
     4
 10
489863
 20
3251942
  0
VERTEX
  8
HA_6291
 62
     4
 10
489875
 20
3251957
  0
VERTEX
  8
HA_6291
 62
     4
 10
489876
 20
3251980
  0
VERTEX
  8
HA_6291
 62
     4
 10
489875
 20
3251996
  0
VERTEX
  8
HA_6291
 62
     4
 10
489873
 20
3252007
  0
VERTEX
  8
HA_6291
 62
     4
 10
489872
 20
3252008
  0
VERTEX
  8
HA_6291
 62
     4
 10
489867
 20
3252012
  0
VERTEX
  8
HA_6291
 62
     4
 10
489861
 20
3252012
  0
VERTEX
  8
HA_6291
 62
     4
 10
489847
 20
3252009
  0
VERTEX
  8
HA_6291
 62
     4
 10
489831
 20
3252004
  0
SEQEND
  0
POLYLINE
  8
HA_6291
  6
CONTINUOUS
 62
     4
 66
     1
  0
VERTEX
  8
HA_6291
 62
     4
 10
478450
 20
3244615
  0
VERTEX
  8
HA_6291
 62
     4
 10
478472
 20
3244593
  0
VERTEX
  8
HA_6291
 62
     4
 10
478486
 20
3244581
  0
VERTEX
  8
HA_6291
 62
     4
 10
478501
 20
3244570
  0
VERTEX
  8
HA_6291
 62
     4
 10
478531
 20
3244565
  0
VERTEX
  8
HA_6291
 62
     4
 10
478544
 20
3244569
  0
VERTEX
  8
HA_6291
 62
     4
 10
478567
 20
3244593
  0
VERTEX
  8
HA_6291
 62
     4
 10
478569
 20
3244604
  0
VERTEX
  8
HA_6291
 62
     4
 10
478569
 20
3244628
  0
VERTEX
  8
HA_6291
 62
     4
 10
478567
 20
3244646
  0
VERTEX
  8
HA_6291
 62
     4
 10
478556
 20
3244663
  0
VERTEX
  8
HA_6291
 62
     4
 10
478541
 20
3244676
  0
VERTEX
  8
HA_6291
 62
     4
 10
478521
 20
3244685
  0
VERTEX
  8
HA_6291
 62
     4
 10
478506
 20
3244684
  0
VERTEX
  8
HA_6291
 62
     4
 10
478462
 20
3244673
  0
VERTEX
  8
HA_6291
 62
     4
 10
478449
 20
3244654
  0
VERTEX
  8
HA_6291
 62
     4
 10
478450
 20
3244615
  0
SEQEND
  0
POLYLINE
  8
HA_6291
  6
CONTINUOUS
 62
     4
 66
     1
  0
VERTEX
  8
HA_6291
 62
     4
 10
487360
 20
3249070
  0
VERTEX
  8
HA_6291
 62
     4
 10
487366
 20
3249063
  0
VERTEX
  8
HA_6291
 62
     4
 10
487381
 20
3249063
  0
VERTEX
  8
HA_6291
 62
     4
 10
487385
 20
3249069
  0
VERTEX
  8
HA_6291
 62
     4
 10
487385
 20
3249075
  0
VERTEX
  8
HA_6291
 62
     4
 10
487384
 20
3249081
  0
VERTEX
  8
HA_6291
 62
     4
 10
487377
 20
3249086
  0
VERTEX
  8
HA_6291
 62
     4
 10
487371
 20
3249088
  0
SEQEND
  0
POLYLINE
  8
HA_6291
  6
CONTINUOUS
 62
     4
 66
     1
  0
VERTEX
  8
HA_6291
 62
     4
 10
491174
 20
3253268
  0
VERTEX
  8
HA_6291
 62
     4
 10
491171
 20
3253282
  0
VERTEX
  8
HA_6291
 62
     4
 10
491168
 20
3253308
  0
VERTEX
  8
HA_6291
 62
     4
 10
491171
 20
3253329
  0
VERTEX
  8
HA_6291
 62
     4
 10
491172
 20
3253346
  0
VERTEX
  8
HA_6291
 62
     4
 10
491169
 20
3253355
  0
VERTEX
  8
HA_6291
 62
     4
 10
491164
 20
3253367
  0
VERTEX
  8
HA_6291
 62
     4
 10
491157
 20
3253372
  0
VERTEX
  8
HA_6291
 62
     4
 10
491143
 20
3253378
  0
VERTEX
  8
HA_6291
 62
     4
 10
491129
 20
3253382
  0
VERTEX
  8
HA_6291
 62
     4
 10
491114
 20
3253384
  0
VERTEX
  8
HA_6291
 62
     4
 10
491088
 20
3253390
  0
VERTEX
  8
HA_6291
 62
     4
 10
491073
 20
3253392
  0
VERTEX
  8
HA_6291
 62
     4
 10
491057
 20
3253389
  0
VERTEX
  8
HA_6291
 62
     4
 10
491044
 20
3253378
  0
SEQEND
  0
POLYLINE
  8
HA_6291
  6
CONTINUOUS
 62
     4
 66
     1
  0
VERTEX
  8
HA_6291
 62
     4
 10
491174
 20
3253268
  0
VERTEX
  8
HA_6291
 62
     4
 10
491157
 20
3253253
  0
VERTEX
  8
HA_6291
 62
     4
 10
491127
 20
3253271
  0
VERTEX
  8
HA_6291
 62
     4
 10
491104
 20
3253287
  0
VERTEX
  8
HA_6291
 62
     4
 10
491088
 20
3253303
  0
VERTEX
  8
HA_6291
 62
     4
 10
491076
 20
3253314
  0
VERTEX
  8
HA_6291
 62
     4
 10
491068
 20
3253322
  0
VERTEX
  8
HA_6291
 62
     4
 10
491042
 20
3253344
  0
VERTEX
  8
HA_6291
 62
     4
 10
491035
 20
3253360
  0
VERTEX
  8
HA_6291
 62
     4
 10
491044
 20
3253378
  0
SEQEND
  0
POLYLINE
  8
HA_6291
  6
CONTINUOUS
 62
     4
 66
     1
  0
VERTEX
  8
HA_6291
 62
     4
 10
489850
 20
3255677
  0
VERTEX
  8
HA_6291
 62
     4
 10
489874
 20
3255682
  0
VERTEX
  8
HA_6291
 62
     4
 10
489888
 20
3255682
  0
VERTEX
  8
HA_6291
 62
     4
 10
489909
 20
3255678
  0
VERTEX
  8
HA_6291
 62
     4
 10
489915
 20
3255673
  0
VERTEX
  8
HA_6291
 62
     4
 10
489919
 20
3255664
  0
VERTEX
  8
HA_6291
 62
     4
 10
489923
 20
3255650
  0
VERTEX
  8
HA_6291
 62
     4
 10
489924
 20
3255635
  0
VERTEX
  8
HA_6291
 62
     4
 10
489925
 20
3255621
  0
VERTEX
  8
HA_6291
 62
     4
 10
489929
 20
3255598
  0
VERTEX
  8
HA_6291
 62
     4
 10
489929
 20
3255582
  0
VERTEX
  8
HA_6291
 62
     4
 10
489924
 20
3255556
  0
VERTEX
  8
HA_6291
 62
     4
 10
489912
 20
3255546
  0
VERTEX
  8
HA_6291
 62
     4
 10
489875
 20
3255546
  0
VERTEX
  8
HA_6291
 62
     4
 10
489865
 20
3255550
  0
SEQEND
  0
POLYLINE
  8
HA_6291
  6
CONTINUOUS
 62
     4
 66
     1
  0
VERTEX
  8
HA_6291
 62
     4
 10
489850
 20
3255677
  0
VERTEX
  8
HA_6291
 62
     4
 10
489845
 20
3255656
  0
VERTEX
  8
HA_6291
 62
     4
 10
489848
 20
3255636
  0
VERTEX
  8
HA_6291
 62
     4
 10
489848
 20
3255621
  0
VERTEX
  8
HA_6291
 62
     4
 10
489852
 20
3255611
  0
VERTEX
  8
HA_6291
 62
     4
 10
489856
 20
3255580
  0
VERTEX
  8
HA_6291
 62
     4
 10
489859
 20
3255565
  0
VERTEX
  8
HA_6291
 62
     4
 10
489865
 20
3255550
  0
SEQEND
  0
POLYLINE
  8
HA_6291
  6
CONTINUOUS
 62
     4
 66
     1
  0
VERTEX
  8
HA_6291
 62
     4
 10
484859
 20
3247462
  0
VERTEX
  8
HA_6291
 62
     4
 10
484864
 20
3247476
  0
VERTEX
  8
HA_6291
 62
     4
 10
484857
 20
3247495
  0
VERTEX
  8
HA_6291
 62
     4
 10
484856
 20
3247501
  0
VERTEX
  8
HA_6291
 62
     4
 10
484849
 20
3247514
  0
VERTEX
  8
HA_6291
 62
     4
 10
484836
 20
3247524
  0
VERTEX
  8
HA_6291
 62
     4
 10
484824
 20
3247531
  0
VERTEX
  8
HA_6291
 62
     4
 10
484810
 20
3247533
  0
VERTEX
  8
HA_6291
 62
     4
 10
484793
 20
3247530
  0
VERTEX
  8
HA_6291
 62
     4
 10
484780
 20
3247522
  0
SEQEND
  0
POLYLINE
  8
HA_6291
  6
CONTINUOUS
 62
     4
 66
     1
  0
VERTEX
  8
HA_6291
 62
     4
 10
481487
 20
3250986
  0
VERTEX
  8
HA_6291
 62
     4
 10
481482
 20
3251006
  0
VERTEX
  8
HA_6291
 62
     4
 10
481470
 20
3251020
  0
VERTEX
  8
HA_6291
 62
     4
 10
481459
 20
3251025
  0
VERTEX
  8
HA_6291
 62
     4
 10
481441
 20
3251026
  0
VERTEX
  8
HA_6291
 62
     4
 10
481428
 20
3251022
  0
VERTEX
  8
HA_6291
 62
     4
 10
481404
 20
3251018
  0
VERTEX
  8
HA_6291
 62
     4
 10
481381
 20
3251018
  0
VERTEX
  8
HA_6291
 62
     4
 10
481360
 20
3251007
  0
VERTEX
  8
HA_6291
 62
     4
 10
481335
 20
3250992
  0
SEQEND
  0
POLYLINE
  8
HA_6291
  6
CONTINUOUS
 62
     4
 66
     1
  0
VERTEX
  8
HA_6291
 62
     4
 10
491613
 20
3241647
  0
VERTEX
  8
HA_6291
 62
     4
 10
491611
 20
3241668
  0
VERTEX
  8
HA_6291
 62
     4
 10
491605
 20
3241679
  0
VERTEX
  8
HA_6291
 62
     4
 10
491590
 20
3241691
  0
VERTEX
  8
HA_6291
 62
     4
 10
491571
 20
3241703
  0
VERTEX
  8
HA_6291
 62
     4
 10
491554
 20
3241709
  0
VERTEX
  8
HA_6291
 62
     4
 10
491534
 20
3241714
  0
VERTEX
  8
HA_6291
 62
     4
 10
491513
 20
3241716
  0
VERTEX
  8
HA_6291
 62
     4
 10
491500
 20
3241711
  0
VERTEX
  8
HA_6291
 62
     4
 10
491486
 20
3241696
  0
SEQEND
  0
POLYLINE
  8
HA_6291
  6
CONTINUOUS
 62
     4
 66
     1
  0
VERTEX
  8
HA_6291
 62
     4
 10
491486
 20
3241696
  0
VERTEX
  8
HA_6291
 62
     4
 10
491480
 20
3241678
  0
VERTEX
  8
HA_6291
 62
     4
 10
491486
 20
3241656
  0
VERTEX
  8
HA_6291
 62
     4
 10
491504
 20
3241639
  0
VERTEX
  8
HA_6291
 62
     4
 10
491515
 20
3241634
  0
VERTEX
  8
HA_6291
 62
     4
 10
491528
 20
3241627
  0
VERTEX
  8
HA_6291
 62
     4
 10
491545
 20
3241619
  0
VERTEX
  8
HA_6291
 62
     4
 10
491560
 20
3241609
  0
VERTEX
  8
HA_6291
 62
     4
 10
491572
 20
3241602
  0
VERTEX
  8
HA_6291
 62
     4
 10
491588
 20
3241599
  0
VERTEX
  8
HA_6291
 62
     4
 10
491597
 20
3241605
  0
VERTEX
  8
HA_6291
 62
     4
 10
491606
 20
3241618
  0
VERTEX
  8
HA_6291
 62
     4
 10
491613
 20
3241647
  0
SEQEND
  0
POLYLINE
  8
HA_6291
  6
CONTINUOUS
 62
     4
 66
     1
  0
VERTEX
  8
HA_6291
 62
     4
 10
480202
 20
3248604
  0
VERTEX
  8
HA_6291
 62
     4
 10
480222
 20
3248607
  0
VERTEX
  8
HA_6291
 62
     4
 10
480232
 20
3248611
  0
VERTEX
  8
HA_6291
 62
     4
 10
480238
 20
3248613
  0
VERTEX
  8
HA_6291
 62
     4
 10
480249
 20
3248629
  0
VERTEX
  8
HA_6291
 62
     4
 10
480249
 20
3248639
  0
VERTEX
  8
HA_6291
 62
     4
 10
480245
 20
3248649
  0
VERTEX
  8
HA_6291
 62
     4
 10
480240
 20
3248657
  0
VERTEX
  8
HA_6291
 62
     4
 10
480229
 20
3248669
  0
VERTEX
  8
HA_6291
 62
     4
 10
480220
 20
3248675
  0
VERTEX
  8
HA_6291
 62
     4
 10
480207
 20
3248679
  0
VERTEX
  8
HA_6291
 62
     4
 10
480202
 20
3248679
  0
VERTEX
  8
HA_6291
 62
     4
 10
480190
 20
3248675
  0
VERTEX
  8
HA_6291
 62
     4
 10
480179
 20
3248658
  0
VERTEX
  8
HA_6291
 62
     4
 10
480177
 20
3248644
  0
VERTEX
  8
HA_6291
 62
     4
 10
480187
 20
3248624
  0
VERTEX
  8
HA_6291
 62
     4
 10
480202
 20
3248604
  0
SEQEND
  0
POLYLINE
  8
HA_6291
  6
CONTINUOUS
 62
     4
 66
     1
  0
VERTEX
  8
HA_6291
 62
     4
 10
493188
 20
3244697
  0
VERTEX
  8
HA_6291
 62
     4
 10
493199
 20
3244679
  0
VERTEX
  8
HA_6291
 62
     4
 10
493213
 20
3244663
  0
VERTEX
  8
HA_6291
 62
     4
 10
493232
 20
3244655
  0
VERTEX
  8
HA_6291
 62
     4
 10
493266
 20
3244661
  0
VERTEX
  8
HA_6291
 62
     4
 10
493272
 20
3244665
  0
VERTEX
  8
HA_6291
 62
     4
 10
493274
 20
3244675
  0
VERTEX
  8
HA_6291
 62
     4
 10
493276
 20
3244682
  0
VERTEX
  8
HA_6291
 62
     4
 10
493267
 20
3244694
  0
VERTEX
  8
HA_6291
 62
     4
 10
493261
 20
3244703
  0
VERTEX
  8
HA_6291
 62
     4
 10
493254
 20
3244710
  0
VERTEX
  8
HA_6291
 62
     4
 10
493243
 20
3244718
  0
VERTEX
  8
HA_6291
 62
     4
 10
493231
 20
3244725
  0
VERTEX
  8
HA_6291
 62
     4
 10
493215
 20
3244728
  0
VERTEX
  8
HA_6291
 62
     4
 10
493200
 20
3244726
  0
VERTEX
  8
HA_6291
 62
     4
 10
493191
 20
3244721
  0
VERTEX
  8
HA_6291
 62
     4
 10
493186
 20
3244711
  0
VERTEX
  8
HA_6291
 62
     4
 10
493188
 20
3244697
  0
SEQEND
  0
POLYLINE
  8
HA_6291
  6
CONTINUOUS
 62
     4
 66
     1
  0
VERTEX
  8
HA_6291
 62
     4
 10
490256
 20
3246553
  0
VERTEX
  8
HA_6291
 62
     4
 10
490280
 20
3246575
  0
VERTEX
  8
HA_6291
 62
     4
 10
490300
 20
3246578
  0
VERTEX
  8
HA_6291
 62
     4
 10
490322
 20
3246580
  0
VERTEX
  8
HA_6291
 62
     4
 10
490351
 20
3246576
  0
VERTEX
  8
HA_6291
 62
     4
 10
490363
 20
3246572
  0
VERTEX
  8
HA_6291
 62
     4
 10
490372
 20
3246557
  0
VERTEX
  8
HA_6291
 62
     4
 10
490379
 20
3246544
  0
VERTEX
  8
HA_6291
 62
     4
 10
490383
 20
3246523
  0
VERTEX
  8
HA_6291
 62
     4
 10
490390
 20
3246508
  0
VERTEX
  8
HA_6291
 62
     4
 10
490396
 20
3246481
  0
VERTEX
  8
HA_6291
 62
     4
 10
490396
 20
3246460
  0
SEQEND
  0
POLYLINE
  8
HA_6291
  6
CONTINUOUS
 62
     4
 66
     1
  0
VERTEX
  8
HA_6291
 62
     4
 10
490396
 20
3246460
  0
VERTEX
  8
HA_6291
 62
     4
 10
490390
 20
3246447
  0
VERTEX
  8
HA_6291
 62
     4
 10
490372
 20
3246446
  0
VERTEX
  8
HA_6291
 62
     4
 10
490335
 20
3246456
  0
VERTEX
  8
HA_6291
 62
     4
 10
490309
 20
3246473
  0
VERTEX
  8
HA_6291
 62
     4
 10
490292
 20
3246485
  0
VERTEX
  8
HA_6291
 62
     4
 10
490254
 20
3246518
  0
VERTEX
  8
HA_6291
 62
     4
 10
490238
 20
3246534
  0
VERTEX
  8
HA_6291
 62
     4
 10
490256
 20
3246553
  0
SEQEND
  0
POLYLINE
  8
HA_6291
  6
CONTINUOUS
 62
     4
 66
     1
  0
VERTEX
  8
HA_6291
 62
     4
 10
475460
 20
3254414
  0
VERTEX
  8
HA_6291
 62
     4
 10
475456
 20
3254409
  0
VERTEX
  8
HA_6291
 62
     4
 10
475446
 20
3254407
  0
VERTEX
  8
HA_6291
 62
     4
 10
475440
 20
3254403
  0
VERTEX
  8
HA_6291
 62
     4
 10
475442
 20
3254397
  0
VERTEX
  8
HA_6291
 62
     4
 10
475454
 20
3254383
  0
VERTEX
  8
HA_6291
 62
     4
 10
475466
 20
3254378
  0
VERTEX
  8
HA_6291
 62
     4
 10
475476
 20
3254376
  0
VERTEX
  8
HA_6291
 62
     4
 10
475487
 20
3254377
  0
VERTEX
  8
HA_6291
 62
     4
 10
475492
 20
3254381
  0
VERTEX
  8
HA_6291
 62
     4
 10
475497
 20
3254387
  0
VERTEX
  8
HA_6291
 62
     4
 10
475503
 20
3254395
  0
VERTEX
  8
HA_6291
 62
     4
 10
475505
 20
3254401
  0
VERTEX
  8
HA_6291
 62
     4
 10
475507
 20
3254411
  0
VERTEX
  8
HA_6291
 62
     4
 10
475507
 20
3254420
  0
VERTEX
  8
HA_6291
 62
     4
 10
475505
 20
3254424
  0
VERTEX
  8
HA_6291
 62
     4
 10
475500
 20
3254427
  0
VERTEX
  8
HA_6291
 62
     4
 10
475497
 20
3254428
  0
VERTEX
  8
HA_6291
 62
     4
 10
475493
 20
3254429
  0
VERTEX
  8
HA_6291
 62
     4
 10
475489
 20
3254429
  0
VERTEX
  8
HA_6291
 62
     4
 10
475484
 20
3254426
  0
VERTEX
  8
HA_6291
 62
     4
 10
475472
 20
3254420
  0
VERTEX
  8
HA_6291
 62
     4
 10
475460
 20
3254414
  0
SEQEND
  0
POLYLINE
  8
HA_6291
  6
CONTINUOUS
 62
     4
 66
     1
  0
VERTEX
  8
HA_6291
 62
     4
 10
475934
 20
3253395
  0
VERTEX
  8
HA_6291
 62
     4
 10
475937
 20
3253402
  0
VERTEX
  8
HA_6291
 62
     4
 10
475944
 20
3253411
  0
VERTEX
  8
HA_6291
 62
     4
 10
475949
 20
3253417
  0
VERTEX
  8
HA_6291
 62
     4
 10
475963
 20
3253424
  0
SEQEND
  0
POLYLINE
  8
HA_6291
  6
CONTINUOUS
 62
     4
 66
     1
  0
VERTEX
  8
HA_6291
 62
     4
 10
475934
 20
3253395
  0
VERTEX
  8
HA_6291
 62
     4
 10
475935
 20
3253392
  0
VERTEX
  8
HA_6291
 62
     4
 10
475941
 20
3253386
  0
VERTEX
  8
HA_6291
 62
     4
 10
475946
 20
3253382
  0
VERTEX
  8
HA_6291
 62
     4
 10
475952
 20
3253379
  0
VERTEX
  8
HA_6291
 62
     4
 10
475959
 20
3253377
  0
VERTEX
  8
HA_6291
 62
     4
 10
475962
 20
3253377
  0
VERTEX
  8
HA_6291
 62
     4
 10
475968
 20
3253377
  0
VERTEX
  8
HA_6291
 62
     4
 10
475972
 20
3253379
  0
VERTEX
  8
HA_6291
 62
     4
 10
475977
 20
3253384
  0
VERTEX
  8
HA_6291
 62
     4
 10
475981
 20
3253391
  0
VERTEX
  8
HA_6291
 62
     4
 10
475983
 20
3253399
  0
VERTEX
  8
HA_6291
 62
     4
 10
475983
 20
3253407
  0
VERTEX
  8
HA_6291
 62
     4
 10
475981
 20
3253415
  0
VERTEX
  8
HA_6291
 62
     4
 10
475978
 20
3253420
  0
VERTEX
  8
HA_6291
 62
     4
 10
475974
 20
3253423
  0
VERTEX
  8
HA_6291
 62
     4
 10
475971
 20
3253424
  0
VERTEX
  8
HA_6291
 62
     4
 10
475967
 20
3253424
  0
VERTEX
  8
HA_6291
 62
     4
 10
475963
 20
3253424
  0
SEQEND
  0
POLYLINE
  8
HA_6291
  6
CONTINUOUS
 62
     4
 66
     1
  0
VERTEX
  8
HA_6291
 62
     4
 10
480121
 20
3257341
  0
VERTEX
  8
HA_6291
 62
     4
 10
480134
 20
3257357
  0
VERTEX
  8
HA_6291
 62
     4
 10
480153
 20
3257366
  0
VERTEX
  8
HA_6291
 62
     4
 10
480180
 20
3257379
  0
VERTEX
  8
HA_6291
 62
     4
 10
480200
 20
3257378
  0
VERTEX
  8
HA_6291
 62
     4
 10
480222
 20
3257365
  0
VERTEX
  8
HA_6291
 62
     4
 10
480249
 20
3257345
  0
VERTEX
  8
HA_6291
 62
     4
 10
480257
 20
3257327
  0
VERTEX
  8
HA_6291
 62
     4
 10
480261
 20
3257308
  0
VERTEX
  8
HA_6291
 62
     4
 10
480256
 20
3257284
  0
VERTEX
  8
HA_6291
 62
     4
 10
480243
 20
3257267
  0
SEQEND
  0
POLYLINE
  8
HA_6291
  6
CONTINUOUS
 62
     4
 66
     1
  0
VERTEX
  8
HA_6291
 62
     4
 10
480121
 20
3257341
  0
VERTEX
  8
HA_6291
 62
     4
 10
480121
 20
3257329
  0
VERTEX
  8
HA_6291
 62
     4
 10
480134
 20
3257315
  0
VERTEX
  8
HA_6291
 62
     4
 10
480158
 20
3257300
  0
VERTEX
  8
HA_6291
 62
     4
 10
480165
 20
3257293
  0
VERTEX
  8
HA_6291
 62
     4
 10
480195
 20
3257269
  0
VERTEX
  8
HA_6291
 62
     4
 10
480219
 20
3257248
  0
VERTEX
  8
HA_6291
 62
     4
 10
480228
 20
3257253
  0
VERTEX
  8
HA_6291
 62
     4
 10
480243
 20
3257267
  0
SEQEND
  0
POLYLINE
  8
HA_6291
  6
CONTINUOUS
 62
     4
 66
     1
  0
VERTEX
  8
HA_6291
 62
     4
 10
486134
 20
3248279
  0
VERTEX
  8
HA_6291
 62
     4
 10
486146
 20
3248323
  0
VERTEX
  8
HA_6291
 62
     4
 10
486160
 20
3248349
  0
VERTEX
  8
HA_6291
 62
     4
 10
486161
 20
3248364
  0
VERTEX
  8
HA_6291
 62
     4
 10
486163
 20
3248378
  0
VERTEX
  8
HA_6291
 62
     4
 10
486177
 20
3248406
  0
VERTEX
  8
HA_6291
 62
     4
 10
486178
 20
3248433
  0
VERTEX
  8
HA_6291
 62
     4
 10
486172
 20
3248444
  0
VERTEX
  8
HA_6291
 62
     4
 10
486161
 20
3248457
  0
VERTEX
  8
HA_6291
 62
     4
 10
486152
 20
3248488
  0
VERTEX
  8
HA_6291
 62
     4
 10
486148
 20
3248501
  0
VERTEX
  8
HA_6291
 62
     4
 10
486146
 20
3248530
  0
VERTEX
  8
HA_6291
 62
     4
 10
486148
 20
3248553
  0
VERTEX
  8
HA_6291
 62
     4
 10
486152
 20
3248587
  0
VERTEX
  8
HA_6291
 62
     4
 10
486149
 20
3248609
  0
VERTEX
  8
HA_6291
 62
     4
 10
486141
 20
3248614
  0
VERTEX
  8
HA_6291
 62
     4
 10
486114
 20
3248610
  0
VERTEX
  8
HA_6291
 62
     4
 10
486095
 20
3248602
  0
VERTEX
  8
HA_6291
 62
     4
 10
486077
 20
3248587
  0
VERTEX
  8
HA_6291
 62
     4
 10
486059
 20
3248577
  0
VERTEX
  8
HA_6291
 62
     4
 10
486047
 20
3248580
  0
VERTEX
  8
HA_6291
 62
     4
 10
486033
 20
3248599
  0
VERTEX
  8
HA_6291
 62
     4
 10
486018
 20
3248614
  0
VERTEX
  8
HA_6291
 62
     4
 10
486009
 20
3248599
  0
VERTEX
  8
HA_6291
 62
     4
 10
486005
 20
3248574
  0
VERTEX
  8
HA_6291
 62
     4
 10
486005
 20
3248549
  0
VERTEX
  8
HA_6291
 62
     4
 10
485996
 20
3248531
  0
VERTEX
  8
HA_6291
 62
     4
 10
485983
 20
3248529
  0
VERTEX
  8
HA_6291
 62
     4
 10
485951
 20
3248538
  0
VERTEX
  8
HA_6291
 62
     4
 10
485932
 20
3248540
  0
VERTEX
  8
HA_6291
 62
     4
 10
485920
 20
3248530
  0
VERTEX
  8
HA_6291
 62
     4
 10
485920
 20
3248509
  0
VERTEX
  8
HA_6291
 62
     4
 10
485931
 20
3248487
  0
VERTEX
  8
HA_6291
 62
     4
 10
485943
 20
3248466
  0
VERTEX
  8
HA_6291
 62
     4
 10
485980
 20
3248446
  0
VERTEX
  8
HA_6291
 62
     4
 10
486004
 20
3248437
  0
VERTEX
  8
HA_6291
 62
     4
 10
486036
 20
3248425
  0
VERTEX
  8
HA_6291
 62
     4
 10
486060
 20
3248407
  0
VERTEX
  8
HA_6291
 62
     4
 10
486088
 20
3248382
  0
VERTEX
  8
HA_6291
 62
     4
 10
486095
 20
3248349
  0
VERTEX
  8
HA_6291
 62
     4
 10
486092
 20
3248291
  0
SEQEND
  0
POLYLINE
  8
HA_6291
  6
CONTINUOUS
 62
     4
 66
     1
  0
VERTEX
  8
HA_6291
 62
     4
 10
493517
 20
3239509
  0
VERTEX
  8
HA_6291
 62
     4
 10
493527
 20
3239504
  0
VERTEX
  8
HA_6291
 62
     4
 10
493534
 20
3239503
  0
VERTEX
  8
HA_6291
 62
     4
 10
493548
 20
3239504
  0
VERTEX
  8
HA_6291
 62
     4
 10
493560
 20
3239516
  0
VERTEX
  8
HA_6291
 62
     4
 10
493565
 20
3239527
  0
VERTEX
  8
HA_6291
 62
     4
 10
493565
 20
3239547
  0
VERTEX
  8
HA_6291
 62
     4
 10
493565
 20
3239568
  0
VERTEX
  8
HA_6291
 62
     4
 10
493560
 20
3239583
  0
VERTEX
  8
HA_6291
 62
     4
 10
493550
 20
3239589
  0
VERTEX
  8
HA_6291
 62
     4
 10
493529
 20
3239594
  0
VERTEX
  8
HA_6291
 62
     4
 10
493514
 20
3239593
  0
VERTEX
  8
HA_6291
 62
     4
 10
493503
 20
3239585
  0
VERTEX
  8
HA_6291
 62
     4
 10
493493
 20
3239575
  0
VERTEX
  8
HA_6291
 62
     4
 10
493491
 20
3239560
  0
VERTEX
  8
HA_6291
 62
     4
 10
493492
 20
3239545
  0
VERTEX
  8
HA_6291
 62
     4
 10
493493
 20
3239533
  0
VERTEX
  8
HA_6291
 62
     4
 10
493504
 20
3239520
  0
VERTEX
  8
HA_6291
 62
     4
 10
493517
 20
3239509
  0
SEQEND
  0
POLYLINE
  8
HA_6291
  6
CONTINUOUS
 62
     4
 66
     1
  0
VERTEX
  8
HA_6291
 62
     4
 10
495592
 20
3241932
  0
VERTEX
  8
HA_6291
 62
     4
 10
495594
 20
3241929
  0
VERTEX
  8
HA_6291
 62
     4
 10
495602
 20
3241922
  0
VERTEX
  8
HA_6291
 62
     4
 10
495612
 20
3241919
  0
VERTEX
  8
HA_6291
 62
     4
 10
495628
 20
3241920
  0
VERTEX
  8
HA_6291
 62
     4
 10
495650
 20
3241925
  0
VERTEX
  8
HA_6291
 62
     4
 10
495653
 20
3241933
  0
VERTEX
  8
HA_6291
 62
     4
 10
495653
 20
3241941
  0
VERTEX
  8
HA_6291
 62
     4
 10
495653
 20
3241945
  0
VERTEX
  8
HA_6291
 62
     4
 10
495652
 20
3241950
  0
VERTEX
  8
HA_6291
 62
     4
 10
495649
 20
3241953
  0
VERTEX
  8
HA_6291
 62
     4
 10
495645
 20
3241954
  0
VERTEX
  8
HA_6291
 62
     4
 10
495635
 20
3241955
  0
VERTEX
  8
HA_6291
 62
     4
 10
495621
 20
3241954
  0
VERTEX
  8
HA_6291
 62
     4
 10
495608
 20
3241952
  0
VERTEX
  8
HA_6291
 62
     4
 10
495594
 20
3241948
  0
VERTEX
  8
HA_6291
 62
     4
 10
495590
 20
3241943
  0
VERTEX
  8
HA_6291
 62
     4
 10
495592
 20
3241932
  0
SEQEND
  0
POLYLINE
  8
HA_6291
  6
CONTINUOUS
 62
     4
 66
     1
  0
VERTEX
  8
HA_6291
 62
     4
 10
481335
 20
3250992
  0
VERTEX
  8
HA_6291
 62
     4
 10
481323
 20
3250964
  0
VERTEX
  8
HA_6291
 62
     4
 10
481328
 20
3250951
  0
VERTEX
  8
HA_6291
 62
     4
 10
481330
 20
3250945
  0
VERTEX
  8
HA_6291
 62
     4
 10
481345
 20
3250932
  0
VERTEX
  8
HA_6291
 62
     4
 10
481366
 20
3250925
  0
VERTEX
  8
HA_6291
 62
     4
 10
481389
 20
3250925
  0
VERTEX
  8
HA_6291
 62
     4
 10
481411
 20
3250925
  0
VERTEX
  8
HA_6291
 62
     4
 10
481452
 20
3250930
  0
VERTEX
  8
HA_6291
 62
     4
 10
481487
 20
3250963
  0
VERTEX
  8
HA_6291
 62
     4
 10
481487
 20
3250986
  0
SEQEND
  0
POLYLINE
  8
HA_6291
  6
CONTINUOUS
 62
     4
 66
     1
  0
VERTEX
  8
HA_6291
 62
     4
 10
473551
 20
3253925
  0
VERTEX
  8
HA_6291
 62
     4
 10
473555
 20
3253922
  0
VERTEX
  8
HA_6291
 62
     4
 10
473572
 20
3253912
  0
VERTEX
  8
HA_6291
 62
     4
 10
473588
 20
3253913
  0
VERTEX
  8
HA_6291
 62
     4
 10
473602
 20
3253918
  0
VERTEX
  8
HA_6291
 62
     4
 10
473605
 20
3253926
  0
VERTEX
  8
HA_6291
 62
     4
 10
473604
 20
3253932
  0
VERTEX
  8
HA_6291
 62
     4
 10
473599
 20
3253936
  0
VERTEX
  8
HA_6291
 62
     4
 10
473592
 20
3253941
  0
VERTEX
  8
HA_6291
 62
     4
 10
473584
 20
3253945
  0
VERTEX
  8
HA_6291
 62
     4
 10
473565
 20
3253945
  0
VERTEX
  8
HA_6291
 62
     4
 10
473557
 20
3253940
  0
VERTEX
  8
HA_6291
 62
     4
 10
473551
 20
3253925
  0
SEQEND
  0
POLYLINE
  8
HA_6291
  6
CONTINUOUS
 62
     4
 66
     1
  0
VERTEX
  8
HA_6291
 62
     4
 10
483811
 20
3238872
  0
VERTEX
  8
HA_6291
 62
     4
 10
483831
 20
3238869
  0
VERTEX
  8
HA_6291
 62
     4
 10
483839
 20
3238871
  0
VERTEX
  8
HA_6291
 62
     4
 10
483847
 20
3238881
  0
VERTEX
  8
HA_6291
 62
     4
 10
483856
 20
3238890
  0
VERTEX
  8
HA_6291
 62
     4
 10
483863
 20
3238900
  0
VERTEX
  8
HA_6291
 62
     4
 10
483863
 20
3238914
  0
VERTEX
  8
HA_6291
 62
     4
 10
483856
 20
3238929
  0
VERTEX
  8
HA_6291
 62
     4
 10
483843
 20
3238936
  0
VERTEX
  8
HA_6291
 62
     4
 10
483828
 20
3238940
  0
VERTEX
  8
HA_6291
 62
     4
 10
483808
 20
3238936
  0
VERTEX
  8
HA_6291
 62
     4
 10
483798
 20
3238929
  0
VERTEX
  8
HA_6291
 62
     4
 10
483788
 20
3238917
  0
VERTEX
  8
HA_6291
 62
     4
 10
483784
 20
3238902
  0
VERTEX
  8
HA_6291
 62
     4
 10
483795
 20
3238885
  0
VERTEX
  8
HA_6291
 62
     4
 10
483811
 20
3238872
  0
SEQEND
  0
POLYLINE
  8
HA_6291
  6
CONTINUOUS
 62
     4
 66
     1
  0
VERTEX
  8
HA_6291
 62
     4
 10
496397
 20
3239466
  0
VERTEX
  8
HA_6291
 62
     4
 10
496404
 20
3239462
  0
VERTEX
  8
HA_6291
 62
     4
 10
496412
 20
3239458
  0
VERTEX
  8
HA_6291
 62
     4
 10
496424
 20
3239456
  0
VERTEX
  8
HA_6291
 62
     4
 10
496446
 20
3239456
  0
VERTEX
  8
HA_6291
 62
     4
 10
496453
 20
3239456
  0
VERTEX
  8
HA_6291
 62
     4
 10
496466
 20
3239458
  0
VERTEX
  8
HA_6291
 62
     4
 10
496476
 20
3239462
  0
VERTEX
  8
HA_6291
 62
     4
 10
496484
 20
3239469
  0
VERTEX
  8
HA_6291
 62
     4
 10
496489
 20
3239477
  0
VERTEX
  8
HA_6291
 62
     4
 10
496488
 20
3239484
  0
VERTEX
  8
HA_6291
 62
     4
 10
496483
 20
3239491
  0
VERTEX
  8
HA_6291
 62
     4
 10
496475
 20
3239499
  0
VERTEX
  8
HA_6291
 62
     4
 10
496469
 20
3239503
  0
VERTEX
  8
HA_6291
 62
     4
 10
496461
 20
3239510
  0
VERTEX
  8
HA_6291
 62
     4
 10
496451
 20
3239515
  0
VERTEX
  8
HA_6291
 62
     4
 10
496437
 20
3239518
  0
VERTEX
  8
HA_6291
 62
     4
 10
496426
 20
3239519
  0
VERTEX
  8
HA_6291
 62
     4
 10
496417
 20
3239519
  0
VERTEX
  8
HA_6291
 62
     4
 10
496405
 20
3239518
  0
VERTEX
  8
HA_6291
 62
     4
 10
496396
 20
3239514
  0
VERTEX
  8
HA_6291
 62
     4
 10
496389
 20
3239507
  0
VERTEX
  8
HA_6291
 62
     4
 10
496386
 20
3239494
  0
VERTEX
  8
HA_6291
 62
     4
 10
496389
 20
3239481
  0
VERTEX
  8
HA_6291
 62
     4
 10
496397
 20
3239466
  0
SEQEND
  0
POLYLINE
  8
HA_6291
  6
CONTINUOUS
 62
     4
 66
     1
  0
VERTEX
  8
HA_6291
 62
     4
 10
487769
 20
3258955
  0
VERTEX
  8
HA_6291
 62
     4
 10
487781
 20
3258960
  0
VERTEX
  8
HA_6291
 62
     4
 10
487790
 20
3258973
  0
VERTEX
  8
HA_6291
 62
     4
 10
487802
 20
3258984
  0
VERTEX
  8
HA_6291
 62
     4
 10
487831
 20
3259005
  0
VERTEX
  8
HA_6291
 62
     4
 10
487862
 20
3259027
  0
VERTEX
  8
HA_6291
 62
     4
 10
487879
 20
3259045
  0
VERTEX
  8
HA_6291
 62
     4
 10
487892
 20
3259058
  0
VERTEX
  8
HA_6291
 62
     4
 10
487907
 20
3259062
  0
VERTEX
  8
HA_6291
 62
     4
 10
487931
 20
3259065
  0
VERTEX
  8
HA_6291
 62
     4
 10
487945
 20
3259067
  0
VERTEX
  8
HA_6291
 62
     4
 10
487958
 20
3259077
  0
VERTEX
  8
HA_6291
 62
     4
 10
487963
 20
3259091
  0
VERTEX
  8
HA_6291
 62
     4
 10
487960
 20
3259108
  0
VERTEX
  8
HA_6291
 62
     4
 10
487956
 20
3259126
  0
VERTEX
  8
HA_6291
 62
     4
 10
487949
 20
3259136
  0
VERTEX
  8
HA_6291
 62
     4
 10
487936
 20
3259145
  0
VERTEX
  8
HA_6291
 62
     4
 10
487925
 20
3259146
  0
VERTEX
  8
HA_6291
 62
     4
 10
487918
 20
3259146
  0
VERTEX
  8
HA_6291
 62
     4
 10
487904
 20
3259140
  0
VERTEX
  8
HA_6291
 62
     4
 10
487889
 20
3259135
  0
VERTEX
  8
HA_6291
 62
     4
 10
487870
 20
3259124
  0
VERTEX
  8
HA_6291
 62
     4
 10
487853
 20
3259117
  0
VERTEX
  8
HA_6291
 62
     4
 10
487824
 20
3259117
  0
VERTEX
  8
HA_6291
 62
     4
 10
487817
 20
3259126
  0
VERTEX
  8
HA_6291
 62
     4
 10
487813
 20
3259137
  0
VERTEX
  8
HA_6291
 62
     4
 10
487815
 20
3259154
  0
VERTEX
  8
HA_6291
 62
     4
 10
487819
 20
3259184
  0
VERTEX
  8
HA_6291
 62
     4
 10
487812
 20
3259212
  0
VERTEX
  8
HA_6291
 62
     4
 10
487803
 20
3259210
  0
VERTEX
  8
HA_6291
 62
     4
 10
487785
 20
3259202
  0
VERTEX
  8
HA_6291
 62
     4
 10
487766
 20
3259182
  0
VERTEX
  8
HA_6291
 62
     4
 10
487752
 20
3259159
  0
SEQEND
  0
POLYLINE
  8
HA_6291
  6
CONTINUOUS
 62
     4
 66
     1
  0
VERTEX
  8
HA_6291
 62
     4
 10
487752
 20
3259159
  0
VERTEX
  8
HA_6291
 62
     4
 10
487758
 20
3259117
  0
VERTEX
  8
HA_6291
 62
     4
 10
487771
 20
3259081
  0
VERTEX
  8
HA_6291
 62
     4
 10
487768
 20
3259056
  0
VERTEX
  8
HA_6291
 62
     4
 10
487768
 20
3259046
  0
VERTEX
  8
HA_6291
 62
     4
 10
487768
 20
3259025
  0
VERTEX
  8
HA_6291
 62
     4
 10
487763
 20
3259008
  0
VERTEX
  8
HA_6291
 62
     4
 10
487758
 20
3258985
  0
VERTEX
  8
HA_6291
 62
     4
 10
487760
 20
3258970
  0
VERTEX
  8
HA_6291
 62
     4
 10
487769
 20
3258955
  0
SEQEND
  0
POLYLINE
  8
HA_6291
  6
CONTINUOUS
 62
     4
 66
     1
  0
VERTEX
  8
HA_6291
 62
     4
 10
487990
 20
3259074
  0
VERTEX
  8
HA_6291
 62
     4
 10
488003
 20
3259059
  0
VERTEX
  8
HA_6291
 62
     4
 10
488029
 20
3259047
  0
VERTEX
  8
HA_6291
 62
     4
 10
488050
 20
3259046
  0
VERTEX
  8
HA_6291
 62
     4
 10
488071
 20
3259057
  0
VERTEX
  8
HA_6291
 62
     4
 10
488075
 20
3259084
  0
VERTEX
  8
HA_6291
 62
     4
 10
488075
 20
3259094
  0
VERTEX
  8
HA_6291
 62
     4
 10
488071
 20
3259107
  0
VERTEX
  8
HA_6291
 62
     4
 10
488058
 20
3259122
  0
VERTEX
  8
HA_6291
 62
     4
 10
488027
 20
3259159
  0
VERTEX
  8
HA_6291
 62
     4
 10
488023
 20
3259174
  0
VERTEX
  8
HA_6291
 62
     4
 10
488017
 20
3259195
  0
VERTEX
  8
HA_6291
 62
     4
 10
488017
 20
3259223
  0
VERTEX
  8
HA_6291
 62
     4
 10
488022
 20
3259228
  0
VERTEX
  8
HA_6291
 62
     4
 10
488038
 20
3259225
  0
VERTEX
  8
HA_6291
 62
     4
 10
488062
 20
3259217
  0
VERTEX
  8
HA_6291
 62
     4
 10
488076
 20
3259210
  0
VERTEX
  8
HA_6291
 62
     4
 10
488093
 20
3259204
  0
VERTEX
  8
HA_6291
 62
     4
 10
488099
 20
3259212
  0
VERTEX
  8
HA_6291
 62
     4
 10
488100
 20
3259218
  0
VERTEX
  8
HA_6291
 62
     4
 10
488099
 20
3259229
  0
VERTEX
  8
HA_6291
 62
     4
 10
488093
 20
3259241
  0
VERTEX
  8
HA_6291
 62
     4
 10
488082
 20
3259251
  0
VERTEX
  8
HA_6291
 62
     4
 10
488072
 20
3259259
  0
VERTEX
  8
HA_6291
 62
     4
 10
488056
 20
3259268
  0
VERTEX
  8
HA_6291
 62
     4
 10
488042
 20
3259279
  0
VERTEX
  8
HA_6291
 62
     4
 10
488019
 20
3259285
  0
VERTEX
  8
HA_6291
 62
     4
 10
488001
 20
3259282
  0
VERTEX
  8
HA_6291
 62
     4
 10
487976
 20
3259270
  0
VERTEX
  8
HA_6291
 62
     4
 10
487950
 20
3259245
  0
SEQEND
  0
POLYLINE
  8
HA_6291
  6
CONTINUOUS
 62
     4
 66
     1
  0
VERTEX
  8
HA_6291
 62
     4
 10
487950
 20
3259245
  0
VERTEX
  8
HA_6291
 62
     4
 10
487950
 20
3259228
  0
VERTEX
  8
HA_6291
 62
     4
 10
487955
 20
3259209
  0
VERTEX
  8
HA_6291
 62
     4
 10
487963
 20
3259193
  0
VERTEX
  8
HA_6291
 62
     4
 10
487970
 20
3259158
  0
VERTEX
  8
HA_6291
 62
     4
 10
487975
 20
3259144
  0
VERTEX
  8
HA_6291
 62
     4
 10
487977
 20
3259126
  0
VERTEX
  8
HA_6291
 62
     4
 10
487984
 20
3259097
  0
VERTEX
  8
HA_6291
 62
     4
 10
487990
 20
3259074
  0
SEQEND
  0
POLYLINE
  8
HA_6291
  6
CONTINUOUS
 62
     4
 66
     1
  0
VERTEX
  8
HA_6291
 62
     4
 10
486615
 20
3258996
  0
VERTEX
  8
HA_6291
 62
     4
 10
486617
 20
3258987
  0
VERTEX
  8
HA_6291
 62
     4
 10
486619
 20
3258980
  0
VERTEX
  8
HA_6291
 62
     4
 10
486630
 20
3258961
  0
VERTEX
  8
HA_6291
 62
     4
 10
486648
 20
3258950
  0
VERTEX
  8
HA_6291
 62
     4
 10
486668
 20
3258947
  0
VERTEX
  8
HA_6291
 62
     4
 10
486691
 20
3258951
  0
VERTEX
  8
HA_6291
 62
     4
 10
486714
 20
3258958
  0
VERTEX
  8
HA_6291
 62
     4
 10
486731
 20
3258970
  0
VERTEX
  8
HA_6291
 62
     4
 10
486739
 20
3258984
  0
VERTEX
  8
HA_6291
 62
     4
 10
486744
 20
3259004
  0
VERTEX
  8
HA_6291
 62
     4
 10
486738
 20
3259023
  0
VERTEX
  8
HA_6291
 62
     4
 10
486727
 20
3259037
  0
VERTEX
  8
HA_6291
 62
     4
 10
486709
 20
3259052
  0
VERTEX
  8
HA_6291
 62
     4
 10
486695
 20
3259059
  0
VERTEX
  8
HA_6291
 62
     4
 10
486678
 20
3259066
  0
VERTEX
  8
HA_6291
 62
     4
 10
486661
 20
3259068
  0
VERTEX
  8
HA_6291
 62
     4
 10
486643
 20
3259064
  0
VERTEX
  8
HA_6291
 62
     4
 10
486633
 20
3259057
  0
VERTEX
  8
HA_6291
 62
     4
 10
486622
 20
3259040
  0
VERTEX
  8
HA_6291
 62
     4
 10
486615
 20
3259022
  0
VERTEX
  8
HA_6291
 62
     4
 10
486615
 20
3258996
  0
SEQEND
  0
POLYLINE
  8
HA_6291
  6
CONTINUOUS
 62
     4
 66
     1
  0
VERTEX
  8
HA_6291
 62
     4
 10
483075
 20
3237340
  0
VERTEX
  8
HA_6291
 62
     4
 10
483065
 20
3237353
  0
VERTEX
  8
HA_6291
 62
     4
 10
483041
 20
3237364
  0
VERTEX
  8
HA_6291
 62
     4
 10
483026
 20
3237360
  0
VERTEX
  8
HA_6291
 62
     4
 10
483013
 20
3237352
  0
VERTEX
  8
HA_6291
 62
     4
 10
483006
 20
3237343
  0
VERTEX
  8
HA_6291
 62
     4
 10
483003
 20
3237327
  0
SEQEND
  0
POLYLINE
  8
HA_6291
  6
CONTINUOUS
 62
     4
 66
     1
  0
VERTEX
  8
HA_6291
 62
     4
 10
496959
 20
3253825
  0
VERTEX
  8
HA_6291
 62
     4
 10
496955
 20
3253810
  0
VERTEX
  8
HA_6291
 62
     4
 10
496952
 20
3253802
  0
VERTEX
  8
HA_6291
 62
     4
 10
496953
 20
3253795
  0
VERTEX
  8
HA_6291
 62
     4
 10
496956
 20
3253784
  0
VERTEX
  8
HA_6291
 62
     4
 10
496963
 20
3253784
  0
VERTEX
  8
HA_6291
 62
     4
 10
496977
 20
3253785
  0
VERTEX
  8
HA_6291
 62
     4
 10
496992
 20
3253788
  0
VERTEX
  8
HA_6291
 62
     4
 10
497008
 20
3253799
  0
VERTEX
  8
HA_6291
 62
     4
 10
497013
 20
3253820
  0
VERTEX
  8
HA_6291
 62
     4
 10
497010
 20
3253827
  0
VERTEX
  8
HA_6291
 62
     4
 10
497006
 20
3253830
  0
VERTEX
  8
HA_6291
 62
     4
 10
496996
 20
3253831
  0
VERTEX
  8
HA_6291
 62
     4
 10
496978
 20
3253831
  0
VERTEX
  8
HA_6291
 62
     4
 10
496959
 20
3253825
  0
SEQEND
  0
POLYLINE
  8
HA_6291
  6
CONTINUOUS
 62
     4
 66
     1
  0
VERTEX
  8
HA_6291
 62
     4
 10
497471
 20
3256102
  0
VERTEX
  8
HA_6291
 62
     4
 10
497475
 20
3256095
  0
VERTEX
  8
HA_6291
 62
     4
 10
497479
 20
3256088
  0
VERTEX
  8
HA_6291
 62
     4
 10
497488
 20
3256078
  0
VERTEX
  8
HA_6291
 62
     4
 10
497496
 20
3256073
  0
VERTEX
  8
HA_6291
 62
     4
 10
497506
 20
3256073
  0
VERTEX
  8
HA_6291
 62
     4
 10
497517
 20
3256074
  0
VERTEX
  8
HA_6291
 62
     4
 10
497527
 20
3256080
  0
VERTEX
  8
HA_6291
 62
     4
 10
497533
 20
3256089
  0
VERTEX
  8
HA_6291
 62
     4
 10
497534
 20
3256097
  0
VERTEX
  8
HA_6291
 62
     4
 10
497533
 20
3256106
  0
VERTEX
  8
HA_6291
 62
     4
 10
497528
 20
3256117
  0
VERTEX
  8
HA_6291
 62
     4
 10
497517
 20
3256125
  0
VERTEX
  8
HA_6291
 62
     4
 10
497507
 20
3256128
  0
VERTEX
  8
HA_6291
 62
     4
 10
497496
 20
3256131
  0
VERTEX
  8
HA_6291
 62
     4
 10
497486
 20
3256131
  0
VERTEX
  8
HA_6291
 62
     4
 10
497478
 20
3256128
  0
VERTEX
  8
HA_6291
 62
     4
 10
497472
 20
3256117
  0
VERTEX
  8
HA_6291
 62
     4
 10
497471
 20
3256102
  0
SEQEND
  0
POLYLINE
  8
HA_6291
  6
CONTINUOUS
 62
     4
 66
     1
  0
VERTEX
  8
HA_6291
 62
     4
 10
497268
 20
3258374
  0
VERTEX
  8
HA_6291
 62
     4
 10
497272
 20
3258357
  0
VERTEX
  8
HA_6291
 62
     4
 10
497275
 20
3258350
  0
VERTEX
  8
HA_6291
 62
     4
 10
497281
 20
3258343
  0
VERTEX
  8
HA_6291
 62
     4
 10
497289
 20
3258341
  0
VERTEX
  8
HA_6291
 62
     4
 10
497300
 20
3258340
  0
VERTEX
  8
HA_6291
 62
     4
 10
497313
 20
3258341
  0
VERTEX
  8
HA_6291
 62
     4
 10
497326
 20
3258350
  0
VERTEX
  8
HA_6291
 62
     4
 10
497331
 20
3258362
  0
VERTEX
  8
HA_6291
 62
     4
 10
497332
 20
3258381
  0
VERTEX
  8
HA_6291
 62
     4
 10
497332
 20
3258386
  0
VERTEX
  8
HA_6291
 62
     4
 10
497329
 20
3258394
  0
VERTEX
  8
HA_6291
 62
     4
 10
497325
 20
3258402
  0
VERTEX
  8
HA_6291
 62
     4
 10
497320
 20
3258407
  0
VERTEX
  8
HA_6291
 62
     4
 10
497313
 20
3258412
  0
VERTEX
  8
HA_6291
 62
     4
 10
497306
 20
3258412
  0
VERTEX
  8
HA_6291
 62
     4
 10
497298
 20
3258409
  0
VERTEX
  8
HA_6291
 62
     4
 10
497288
 20
3258405
  0
VERTEX
  8
HA_6291
 62
     4
 10
497277
 20
3258399
  0
VERTEX
  8
HA_6291
 62
     4
 10
497270
 20
3258390
  0
VERTEX
  8
HA_6291
 62
     4
 10
497268
 20
3258374
  0
SEQEND
  0
POLYLINE
  8
HA_6291
  6
CONTINUOUS
 62
     4
 66
     1
  0
VERTEX
  8
HA_6291
 62
     4
 10
492874
 20
3260700
  0
VERTEX
  8
HA_6291
 62
     4
 10
492871
 20
3260691
  0
VERTEX
  8
HA_6291
 62
     4
 10
492869
 20
3260681
  0
VERTEX
  8
HA_6291
 62
     4
 10
492873
 20
3260665
  0
VERTEX
  8
HA_6291
 62
     4
 10
492878
 20
3260655
  0
VERTEX
  8
HA_6291
 62
     4
 10
492889
 20
3260649
  0
VERTEX
  8
HA_6291
 62
     4
 10
492903
 20
3260645
  0
VERTEX
  8
HA_6291
 62
     4
 10
492912
 20
3260654
  0
VERTEX
  8
HA_6291
 62
     4
 10
492915
 20
3260659
  0
VERTEX
  8
HA_6291
 62
     4
 10
492918
 20
3260668
  0
VERTEX
  8
HA_6291
 62
     4
 10
492919
 20
3260678
  0
VERTEX
  8
HA_6291
 62
     4
 10
492917
 20
3260687
  0
VERTEX
  8
HA_6291
 62
     4
 10
492913
 20
3260693
  0
VERTEX
  8
HA_6291
 62
     4
 10
492906
 20
3260698
  0
VERTEX
  8
HA_6291
 62
     4
 10
492896
 20
3260702
  0
VERTEX
  8
HA_6291
 62
     4
 10
492884
 20
3260702
  0
VERTEX
  8
HA_6291
 62
     4
 10
492874
 20
3260700
  0
SEQEND
  0
POLYLINE
  8
HA_6291
  6
CONTINUOUS
 62
     4
 66
     1
  0
VERTEX
  8
HA_6291
 62
     4
 10
471323
 20
3245761
  0
VERTEX
  8
HA_6291
 62
     4
 10
471311
 20
3245738
  0
VERTEX
  8
HA_6291
 62
     4
 10
471288
 20
3245740
  0
VERTEX
  8
HA_6291
 62
     4
 10
471265
 20
3245750
  0
VERTEX
  8
HA_6291
 62
     4
 10
471251
 20
3245761
  0
VERTEX
  8
HA_6291
 62
     4
 10
471244
 20
3245786
  0
VERTEX
  8
HA_6291
 62
     4
 10
471242
 20
3245800
  0
VERTEX
  8
HA_6291
 62
     4
 10
471245
 20
3245813
  0
VERTEX
  8
HA_6291
 62
     4
 10
471253
 20
3245823
  0
SEQEND
  0
POLYLINE
  8
HA_6291
  6
CONTINUOUS
 62
     4
 66
     1
  0
VERTEX
  8
HA_6291
 62
     4
 10
471323
 20
3245761
  0
VERTEX
  8
HA_6291
 62
     4
 10
471326
 20
3245777
  0
VERTEX
  8
HA_6291
 62
     4
 10
471319
 20
3245800
  0
VERTEX
  8
HA_6291
 62
     4
 10
471312
 20
3245813
  0
VERTEX
  8
HA_6291
 62
     4
 10
471295
 20
3245828
  0
VERTEX
  8
HA_6291
 62
     4
 10
471282
 20
3245833
  0
VERTEX
  8
HA_6291
 62
     4
 10
471271
 20
3245833
  0
VERTEX
  8
HA_6291
 62
     4
 10
471262
 20
3245830
  0
VERTEX
  8
HA_6291
 62
     4
 10
471253
 20
3245823
  0
SEQEND
  0
POLYLINE
  8
HA_6291
  6
CONTINUOUS
 62
     4
 66
     1
  0
VERTEX
  8
HA_6291
 62
     4
 10
483003
 20
3237327
  0
VERTEX
  8
HA_6291
 62
     4
 10
483002
 20
3237306
  0
VERTEX
  8
HA_6291
 62
     4
 10
483014
 20
3237289
  0
VERTEX
  8
HA_6291
 62
     4
 10
483035
 20
3237283
  0
VERTEX
  8
HA_6291
 62
     4
 10
483048
 20
3237285
  0
VERTEX
  8
HA_6291
 62
     4
 10
483061
 20
3237290
  0
VERTEX
  8
HA_6291
 62
     4
 10
483072
 20
3237299
  0
VERTEX
  8
HA_6291
 62
     4
 10
483078
 20
3237313
  0
VERTEX
  8
HA_6291
 62
     4
 10
483077
 20
3237328
  0
VERTEX
  8
HA_6291
 62
     4
 10
483075
 20
3237340
  0
SEQEND
  0
POLYLINE
  8
HA_6291
  6
CONTINUOUS
 62
     4
 66
     1
  0
VERTEX
  8
HA_6291
 62
     4
 10
488438
 20
3236504
  0
VERTEX
  8
HA_6291
 62
     4
 10
488450
 20
3236527
  0
VERTEX
  8
HA_6291
 62
     4
 10
488448
 20
3236547
  0
VERTEX
  8
HA_6291
 62
     4
 10
488438
 20
3236572
  0
VERTEX
  8
HA_6291
 62
     4
 10
488420
 20
3236578
  0
VERTEX
  8
HA_6291
 62
     4
 10
488404
 20
3236584
  0
VERTEX
  8
HA_6291
 62
     4
 10
488383
 20
3236585
  0
VERTEX
  8
HA_6291
 62
     4
 10
488355
 20
3236584
  0
VERTEX
  8
HA_6291
 62
     4
 10
488340
 20
3236578
  0
VERTEX
  8
HA_6291
 62
     4
 10
488323
 20
3236561
  0
SEQEND
  0
POLYLINE
  8
HA_6291
  6
CONTINUOUS
 62
     4
 66
     1
  0
VERTEX
  8
HA_6291
 62
     4
 10
488323
 20
3236561
  0
VERTEX
  8
HA_6291
 62
     4
 10
488323
 20
3236536
  0
VERTEX
  8
HA_6291
 62
     4
 10
488341
 20
3236507
  0
VERTEX
  8
HA_6291
 62
     4
 10
488360
 20
3236490
  0
VERTEX
  8
HA_6291
 62
     4
 10
488386
 20
3236490
  0
VERTEX
  8
HA_6291
 62
     4
 10
488419
 20
3236495
  0
VERTEX
  8
HA_6291
 62
     4
 10
488438
 20
3236504
  0
SEQEND
  0
POLYLINE
  8
HA_6291
  6
CONTINUOUS
 62
     4
 66
     1
  0
VERTEX
  8
HA_6291
 62
     4
 10
498976
 20
3243825
  0
VERTEX
  8
HA_6291
 62
     4
 10
498981
 20
3243816
  0
VERTEX
  8
HA_6291
 62
     4
 10
498984
 20
3243814
  0
VERTEX
  8
HA_6291
 62
     4
 10
498992
 20
3243810
  0
VERTEX
  8
HA_6291
 62
     4
 10
499002
 20
3243802
  0
VERTEX
  8
HA_6291
 62
     4
 10
499009
 20
3243801
  0
VERTEX
  8
HA_6291
 62
     4
 10
499016
 20
3243804
  0
VERTEX
  8
HA_6291
 62
     4
 10
499019
 20
3243808
  0
VERTEX
  8
HA_6291
 62
     4
 10
499019
 20
3243815
  0
VERTEX
  8
HA_6291
 62
     4
 10
499017
 20
3243822
  0
VERTEX
  8
HA_6291
 62
     4
 10
499012
 20
3243830
  0
VERTEX
  8
HA_6291
 62
     4
 10
499008
 20
3243836
  0
VERTEX
  8
HA_6291
 62
     4
 10
499003
 20
3243840
  0
VERTEX
  8
HA_6291
 62
     4
 10
498997
 20
3243847
  0
VERTEX
  8
HA_6291
 62
     4
 10
498987
 20
3243854
  0
VERTEX
  8
HA_6291
 62
     4
 10
498977
 20
3243859
  0
VERTEX
  8
HA_6291
 62
     4
 10
498966
 20
3243860
  0
VERTEX
  8
HA_6291
 62
     4
 10
498961
 20
3243856
  0
VERTEX
  8
HA_6291
 62
     4
 10
498957
 20
3243844
  0
VERTEX
  8
HA_6291
 62
     4
 10
498960
 20
3243835
  0
VERTEX
  8
HA_6291
 62
     4
 10
498976
 20
3243825
  0
SEQEND
  0
POLYLINE
  8
HA_6291
  6
CONTINUOUS
 62
     4
 66
     1
  0
VERTEX
  8
HA_6291
 62
     4
 10
498471
 20
3247560
  0
VERTEX
  8
HA_6291
 62
     4
 10
498463
 20
3247553
  0
VERTEX
  8
HA_6291
 62
     4
 10
498460
 20
3247543
  0
VERTEX
  8
HA_6291
 62
     4
 10
498463
 20
3247533
  0
VERTEX
  8
HA_6291
 62
     4
 10
498470
 20
3247527
  0
VERTEX
  8
HA_6291
 62
     4
 10
498476
 20
3247525
  0
VERTEX
  8
HA_6291
 62
     4
 10
498490
 20
3247525
  0
VERTEX
  8
HA_6291
 62
     4
 10
498499
 20
3247528
  0
VERTEX
  8
HA_6291
 62
     4
 10
498505
 20
3247534
  0
VERTEX
  8
HA_6291
 62
     4
 10
498507
 20
3247540
  0
VERTEX
  8
HA_6291
 62
     4
 10
498507
 20
3247550
  0
VERTEX
  8
HA_6291
 62
     4
 10
498505
 20
3247556
  0
VERTEX
  8
HA_6291
 62
     4
 10
498501
 20
3247562
  0
VERTEX
  8
HA_6291
 62
     4
 10
498494
 20
3247566
  0
VERTEX
  8
HA_6291
 62
     4
 10
498489
 20
3247567
  0
VERTEX
  8
HA_6291
 62
     4
 10
498482
 20
3247568
  0
VERTEX
  8
HA_6291
 62
     4
 10
498471
 20
3247560
  0
SEQEND
  0
POLYLINE
  8
HA_6291
  6
CONTINUOUS
 62
     4
 66
     1
  0
VERTEX
  8
HA_6291
 62
     4
 10
490843
 20
3261750
  0
VERTEX
  8
HA_6291
 62
     4
 10
490871
 20
3261763
  0
VERTEX
  8
HA_6291
 62
     4
 10
490892
 20
3261804
  0
VERTEX
  8
HA_6291
 62
     4
 10
490890
 20
3261820
  0
VERTEX
  8
HA_6291
 62
     4
 10
490880
 20
3261836
  0
VERTEX
  8
HA_6291
 62
     4
 10
490847
 20
3261855
  0
VERTEX
  8
HA_6291
 62
     4
 10
490828
 20
3261863
  0
VERTEX
  8
HA_6291
 62
     4
 10
490807
 20
3261866
  0
VERTEX
  8
HA_6291
 62
     4
 10
490784
 20
3261865
  0
VERTEX
  8
HA_6291
 62
     4
 10
490769
 20
3261855
  0
VERTEX
  8
HA_6291
 62
     4
 10
490755
 20
3261836
  0
VERTEX
  8
HA_6291
 62
     4
 10
490740
 20
3261807
  0
VERTEX
  8
HA_6291
 62
     4
 10
490738
 20
3261784
  0
VERTEX
  8
HA_6291
 62
     4
 10
490754
 20
3261751
  0
VERTEX
  8
HA_6291
 62
     4
 10
490800
 20
3261743
  0
VERTEX
  8
HA_6291
 62
     4
 10
490843
 20
3261750
  0
SEQEND
  0
POLYLINE
  8
HA_6291
  6
CONTINUOUS
 62
     4
 66
     1
  0
VERTEX
  8
HA_6291
 62
     4
 10
471058
 20
3261530
  0
VERTEX
  8
HA_6291
 62
     4
 10
471048
 20
3261541
  0
VERTEX
  8
HA_6291
 62
     4
 10
471029
 20
3261550
  0
VERTEX
  8
HA_6291
 62
     4
 10
471026
 20
3261548
  0
VERTEX
  8
HA_6291
 62
     4
 10
471023
 20
3261547
  0
VERTEX
  8
HA_6291
 62
     4
 10
471021
 20
3261545
  0
VERTEX
  8
HA_6291
 62
     4
 10
471014
 20
3261541
  0
VERTEX
  8
HA_6291
 62
     4
 10
471008
 20
3261540
  0
VERTEX
  8
HA_6291
 62
     4
 10
470989
 20
3261533
  0
VERTEX
  8
HA_6291
 62
     4
 10
470980
 20
3261527
  0
SEQEND
  0
POLYLINE
  8
HA_6291
  6
CONTINUOUS
 62
     4
 66
     1
  0
VERTEX
  8
HA_6291
 62
     4
 10
470980
 20
3261527
  0
VERTEX
  8
HA_6291
 62
     4
 10
470973
 20
3261516
  0
VERTEX
  8
HA_6291
 62
     4
 10
470976
 20
3261506
  0
VERTEX
  8
HA_6291
 62
     4
 10
470984
 20
3261497
  0
VERTEX
  8
HA_6291
 62
     4
 10
470993
 20
3261491
  0
VERTEX
  8
HA_6291
 62
     4
 10
471007
 20
3261486
  0
VERTEX
  8
HA_6291
 62
     4
 10
471032
 20
3261481
  0
VERTEX
  8
HA_6291
 62
     4
 10
471042
 20
3261486
  0
VERTEX
  8
HA_6291
 62
     4
 10
471050
 20
3261494
  0
VERTEX
  8
HA_6291
 62
     4
 10
471057
 20
3261504
  0
VERTEX
  8
HA_6291
 62
     4
 10
471061
 20
3261516
  0
VERTEX
  8
HA_6291
 62
     4
 10
471058
 20
3261530
  0
SEQEND
  0
POLYLINE
  8
HA_6291
  6
CONTINUOUS
 62
     4
 66
     1
  0
VERTEX
  8
HA_6291
 62
     4
 10
469651
 20
3255487
  0
VERTEX
  8
HA_6291
 62
     4
 10
469648
 20
3255494
  0
VERTEX
  8
HA_6291
 62
     4
 10
469643
 20
3255507
  0
VERTEX
  8
HA_6291
 62
     4
 10
469637
 20
3255523
  0
VERTEX
  8
HA_6291
 62
     4
 10
469629
 20
3255537
  0
VERTEX
  8
HA_6291
 62
     4
 10
469622
 20
3255542
  0
VERTEX
  8
HA_6291
 62
     4
 10
469613
 20
3255543
  0
VERTEX
  8
HA_6291
 62
     4
 10
469601
 20
3255541
  0
VERTEX
  8
HA_6291
 62
     4
 10
469583
 20
3255533
  0
VERTEX
  8
HA_6291
 62
     4
 10
469567
 20
3255525
  0
SEQEND
  0
POLYLINE
  8
HA_6291
  6
CONTINUOUS
 62
     4
 66
     1
  0
VERTEX
  8
HA_6291
 62
     4
 10
469567
 20
3255525
  0
VERTEX
  8
HA_6291
 62
     4
 10
469557
 20
3255514
  0
VERTEX
  8
HA_6291
 62
     4
 10
469555
 20
3255495
  0
VERTEX
  8
HA_6291
 62
     4
 10
469560
 20
3255486
  0
VERTEX
  8
HA_6291
 62
     4
 10
469573
 20
3255477
  0
VERTEX
  8
HA_6291
 62
     4
 10
469592
 20
3255468
  0
VERTEX
  8
HA_6291
 62
     4
 10
469605
 20
3255459
  0
VERTEX
  8
HA_6291
 62
     4
 10
469612
 20
3255455
  0
VERTEX
  8
HA_6291
 62
     4
 10
469625
 20
3255455
  0
VERTEX
  8
HA_6291
 62
     4
 10
469635
 20
3255457
  0
VERTEX
  8
HA_6291
 62
     4
 10
469641
 20
3255465
  0
VERTEX
  8
HA_6291
 62
     4
 10
469649
 20
3255477
  0
VERTEX
  8
HA_6291
 62
     4
 10
469651
 20
3255487
  0
SEQEND
  0
POLYLINE
  8
HA_6291
  6
CONTINUOUS
 62
     4
 66
     1
  0
VERTEX
  8
HA_6291
 62
     4
 10
477017
 20
3249355
  0
VERTEX
  8
HA_6291
 62
     4
 10
477017
 20
3249347
  0
VERTEX
  8
HA_6291
 62
     4
 10
477026
 20
3249338
  0
VERTEX
  8
HA_6291
 62
     4
 10
477042
 20
3249338
  0
VERTEX
  8
HA_6291
 62
     4
 10
477061
 20
3249342
  0
VERTEX
  8
HA_6291
 62
     4
 10
477069
 20
3249344
  0
VERTEX
  8
HA_6291
 62
     4
 10
477085
 20
3249346
  0
VERTEX
  8
HA_6291
 62
     4
 10
477102
 20
3249348
  0
VERTEX
  8
HA_6291
 62
     4
 10
477121
 20
3249355
  0
VERTEX
  8
HA_6291
 62
     4
 10
477135
 20
3249368
  0
VERTEX
  8
HA_6291
 62
     4
 10
477141
 20
3249385
  0
VERTEX
  8
HA_6291
 62
     4
 10
477141
 20
3249401
  0
VERTEX
  8
HA_6291
 62
     4
 10
477137
 20
3249409
  0
VERTEX
  8
HA_6291
 62
     4
 10
477131
 20
3249415
  0
VERTEX
  8
HA_6291
 62
     4
 10
477119
 20
3249418
  0
VERTEX
  8
HA_6291
 62
     4
 10
477107
 20
3249418
  0
VERTEX
  8
HA_6291
 62
     4
 10
477096
 20
3249415
  0
VERTEX
  8
HA_6291
 62
     4
 10
477084
 20
3249409
  0
VERTEX
  8
HA_6291
 62
     4
 10
477070
 20
3249396
  0
VERTEX
  8
HA_6291
 62
     4
 10
477061
 20
3249390
  0
VERTEX
  8
HA_6291
 62
     4
 10
477058
 20
3249387
  0
VERTEX
  8
HA_6291
 62
     4
 10
477046
 20
3249383
  0
VERTEX
  8
HA_6291
 62
     4
 10
477035
 20
3249381
  0
VERTEX
  8
HA_6291
 62
     4
 10
477021
 20
3249374
  0
VERTEX
  8
HA_6291
 62
     4
 10
477017
 20
3249355
  0
SEQEND
  0
POLYLINE
  8
HA_6291
  6
CONTINUOUS
 62
     4
 66
     1
  0
VERTEX
  8
HA_6291
 62
     4
 10
485576
 20
3235978
  0
VERTEX
  8
HA_6291
 62
     4
 10
485572
 20
3235985
  0
VERTEX
  8
HA_6291
 62
     4
 10
485564
 20
3235991
  0
VERTEX
  8
HA_6291
 62
     4
 10
485545
 20
3235994
  0
VERTEX
  8
HA_6291
 62
     4
 10
485517
 20
3236007
  0
VERTEX
  8
HA_6291
 62
     4
 10
485471
 20
3236019
  0
VERTEX
  8
HA_6291
 62
     4
 10
485452
 20
3236014
  0
VERTEX
  8
HA_6291
 62
     4
 10
485441
 20
3236014
  0
VERTEX
  8
HA_6291
 62
     4
 10
485425
 20
3236013
  0
VERTEX
  8
HA_6291
 62
     4
 10
485384
 20
3236016
  0
VERTEX
  8
HA_6291
 62
     4
 10
485360
 20
3236023
  0
VERTEX
  8
HA_6291
 62
     4
 10
485344
 20
3236024
  0
VERTEX
  8
HA_6291
 62
     4
 10
485329
 20
3236017
  0
VERTEX
  8
HA_6291
 62
     4
 10
485318
 20
3236011
  0
SEQEND
  0
POLYLINE
  8
HA_6291
  6
CONTINUOUS
 62
     4
 66
     1
  0
VERTEX
  8
HA_6291
 62
     4
 10
485576
 20
3235978
  0
VERTEX
  8
HA_6291
 62
     4
 10
485563
 20
3235950
  0
VERTEX
  8
HA_6291
 62
     4
 10
485545
 20
3235942
  0
VERTEX
  8
HA_6291
 62
     4
 10
485519
 20
3235948
  0
VERTEX
  8
HA_6291
 62
     4
 10
485470
 20
3235952
  0
VERTEX
  8
HA_6291
 62
     4
 10
485435
 20
3235954
  0
VERTEX
  8
HA_6291
 62
     4
 10
485398
 20
3235959
  0
VERTEX
  8
HA_6291
 62
     4
 10
485373
 20
3235961
  0
VERTEX
  8
HA_6291
 62
     4
 10
485355
 20
3235963
  0
VERTEX
  8
HA_6291
 62
     4
 10
485338
 20
3235965
  0
VERTEX
  8
HA_6291
 62
     4
 10
485318
 20
3235974
  0
VERTEX
  8
HA_6291
 62
     4
 10
485309
 20
3235996
  0
VERTEX
  8
HA_6291
 62
     4
 10
485318
 20
3236011
  0
SEQEND
  0
POLYLINE
  8
HA_6291
  6
CONTINUOUS
 62
     4
 66
     1
  0
VERTEX
  8
HA_6291
 62
     4
 10
496502
 20
3236132
  0
VERTEX
  8
HA_6291
 62
     4
 10
496503
 20
3236123
  0
VERTEX
  8
HA_6291
 62
     4
 10
496504
 20
3236118
  0
VERTEX
  8
HA_6291
 62
     4
 10
496512
 20
3236113
  0
VERTEX
  8
HA_6291
 62
     4
 10
496522
 20
3236113
  0
VERTEX
  8
HA_6291
 62
     4
 10
496535
 20
3236113
  0
VERTEX
  8
HA_6291
 62
     4
 10
496550
 20
3236114
  0
VERTEX
  8
HA_6291
 62
     4
 10
496568
 20
3236114
  0
VERTEX
  8
HA_6291
 62
     4
 10
496588
 20
3236117
  0
VERTEX
  8
HA_6291
 62
     4
 10
496596
 20
3236123
  0
VERTEX
  8
HA_6291
 62
     4
 10
496604
 20
3236134
  0
VERTEX
  8
HA_6291
 62
     4
 10
496608
 20
3236139
  0
VERTEX
  8
HA_6291
 62
     4
 10
496602
 20
3236152
  0
VERTEX
  8
HA_6291
 62
     4
 10
496587
 20
3236157
  0
VERTEX
  8
HA_6291
 62
     4
 10
496579
 20
3236163
  0
VERTEX
  8
HA_6291
 62
     4
 10
496561
 20
3236166
  0
VERTEX
  8
HA_6291
 62
     4
 10
496542
 20
3236172
  0
VERTEX
  8
HA_6291
 62
     4
 10
496519
 20
3236172
  0
VERTEX
  8
HA_6291
 62
     4
 10
496505
 20
3236167
  0
VERTEX
  8
HA_6291
 62
     4
 10
496498
 20
3236155
  0
VERTEX
  8
HA_6291
 62
     4
 10
496502
 20
3236132
  0
SEQEND
  0
POLYLINE
  8
HA_6291
  6
CONTINUOUS
 62
     4
 66
     1
  0
VERTEX
  8
HA_6291
 62
     4
 10
499304
 20
3244090
  0
VERTEX
  8
HA_6291
 62
     4
 10
499286
 20
3244081
  0
VERTEX
  8
HA_6291
 62
     4
 10
499270
 20
3244064
  0
VERTEX
  8
HA_6291
 62
     4
 10
499258
 20
3244053
  0
VERTEX
  8
HA_6291
 62
     4
 10
499256
 20
3244029
  0
VERTEX
  8
HA_6291
 62
     4
 10
499265
 20
3243997
  0
VERTEX
  8
HA_6291
 62
     4
 10
499271
 20
3243980
  0
VERTEX
  8
HA_6291
 62
     4
 10
499279
 20
3243960
  0
VERTEX
  8
HA_6291
 62
     4
 10
499290
 20
3243942
  0
VERTEX
  8
HA_6291
 62
     4
 10
499303
 20
3243927
  0
VERTEX
  8
HA_6291
 62
     4
 10
499314
 20
3243918
  0
VERTEX
  8
HA_6291
 62
     4
 10
499331
 20
3243916
  0
SEQEND
  0
POLYLINE
  8
HA_6291
  6
CONTINUOUS
 62
     4
 66
     1
  0
VERTEX
  8
HA_6291
 62
     4
 10
499331
 20
3243916
  0
VERTEX
  8
HA_6291
 62
     4
 10
499336
 20
3243930
  0
VERTEX
  8
HA_6291
 62
     4
 10
499340
 20
3243946
  0
VERTEX
  8
HA_6291
 62
     4
 10
499342
 20
3243958
  0
VERTEX
  8
HA_6291
 62
     4
 10
499344
 20
3243968
  0
VERTEX
  8
HA_6291
 62
     4
 10
499342
 20
3243976
  0
VERTEX
  8
HA_6291
 62
     4
 10
499339
 20
3243989
  0
VERTEX
  8
HA_6291
 62
     4
 10
499334
 20
3244006
  0
VERTEX
  8
HA_6291
 62
     4
 10
499330
 20
3244018
  0
VERTEX
  8
HA_6291
 62
     4
 10
499327
 20
3244036
  0
VERTEX
  8
HA_6291
 62
     4
 10
499318
 20
3244059
  0
VERTEX
  8
HA_6291
 62
     4
 10
499304
 20
3244090
  0
SEQEND
  0
POLYLINE
  8
HA_6291
  6
CONTINUOUS
 62
     4
 66
     1
  0
VERTEX
  8
HA_6291
 62
     4
 10
499590
 20
3256693
  0
VERTEX
  8
HA_6291
 62
     4
 10
499589
 20
3256679
  0
VERTEX
  8
HA_6291
 62
     4
 10
499594
 20
3256673
  0
VERTEX
  8
HA_6291
 62
     4
 10
499605
 20
3256659
  0
VERTEX
  8
HA_6291
 62
     4
 10
499619
 20
3256644
  0
VERTEX
  8
HA_6291
 62
     4
 10
499637
 20
3256634
  0
VERTEX
  8
HA_6291
 62
     4
 10
499653
 20
3256631
  0
VERTEX
  8
HA_6291
 62
     4
 10
499674
 20
3256638
  0
VERTEX
  8
HA_6291
 62
     4
 10
499698
 20
3256664
  0
VERTEX
  8
HA_6291
 62
     4
 10
499695
 20
3256692
  0
VERTEX
  8
HA_6291
 62
     4
 10
499678
 20
3256711
  0
VERTEX
  8
HA_6291
 62
     4
 10
499654
 20
3256728
  0
VERTEX
  8
HA_6291
 62
     4
 10
499646
 20
3256728
  0
VERTEX
  8
HA_6291
 62
     4
 10
499629
 20
3256727
  0
VERTEX
  8
HA_6291
 62
     4
 10
499603
 20
3256715
  0
VERTEX
  8
HA_6291
 62
     4
 10
499590
 20
3256693
  0
SEQEND
  0
POLYLINE
  8
HA_6291
  6
CONTINUOUS
 62
     4
 66
     1
  0
VERTEX
  8
HA_6291
 62
     4
 10
491851
 20
3261943
  0
VERTEX
  8
HA_6291
 62
     4
 10
491852
 20
3261932
  0
VERTEX
  8
HA_6291
 62
     4
 10
491852
 20
3261919
  0
VERTEX
  8
HA_6291
 62
     4
 10
491859
 20
3261903
  0
VERTEX
  8
HA_6291
 62
     4
 10
491867
 20
3261896
  0
VERTEX
  8
HA_6291
 62
     4
 10
491897
 20
3261894
  0
VERTEX
  8
HA_6291
 62
     4
 10
491910
 20
3261898
  0
VERTEX
  8
HA_6291
 62
     4
 10
491925
 20
3261903
  0
VERTEX
  8
HA_6291
 62
     4
 10
491946
 20
3261913
  0
VERTEX
  8
HA_6291
 62
     4
 10
491953
 20
3261922
  0
VERTEX
  8
HA_6291
 62
     4
 10
491956
 20
3261934
  0
VERTEX
  8
HA_6291
 62
     4
 10
491952
 20
3261947
  0
VERTEX
  8
HA_6291
 62
     4
 10
491943
 20
3261958
  0
VERTEX
  8
HA_6291
 62
     4
 10
491923
 20
3261967
  0
VERTEX
  8
HA_6291
 62
     4
 10
491915
 20
3261969
  0
VERTEX
  8
HA_6291
 62
     4
 10
491900
 20
3261969
  0
VERTEX
  8
HA_6291
 62
     4
 10
491886
 20
3261968
  0
VERTEX
  8
HA_6291
 62
     4
 10
491865
 20
3261958
  0
VERTEX
  8
HA_6291
 62
     4
 10
491851
 20
3261943
  0
SEQEND
  0
ENDSEC
  0
EOF
