  0
SECTION
  2
HEADER
  9
$EXTMIN
 10
467612
 20
3235684
  9
$EXTMAX
 10
500000
 20
3263429.77
  9
$CECOLOR
 62
     0
  9
$CELTYPE
  6
CONTINUOUS
  9
$TEXTSTYLE
  7
STANDARD
  0
ENDSEC
  0
SECTION
  2
TABLES
  0
TABLE
  2
LTYPE
 70
     1
  0
LTYPE
  2
CONTINUOUS
 70
    64
  3
Solid line
 72
    65
 73
     0
 40
0.0
  0
ENDTAB
  0
TABLE
  2
LAYER
 70
    1
  0
LAYER
  2
LL_3480
 70
   64
 62
56
  6
CONTINUOUS
  0
ENDTAB
  0
TABLE
  2
STYLE
 70
     0
  0
ENDTAB
  0
ENDSEC
  0
SECTION
  2
BLOCKS
  0
ENDSEC
  0
SECTION
  2
ENTITIES
  0
POLYLINE
  8
LL_3480
  6
CONTINUOUS
 62
     1
 66
     1
  0
VERTEX
  8
LL_3480
 62
     1
 10
479015
 20
3262577
  0
VERTEX
  8
LL_3480
 62
     1
 10
479071
 20
3262787
  0
VERTEX
  8
LL_3480
 62
     1
 10
479115
 20
3262957
  0
VERTEX
  8
LL_3480
 62
     1
 10
479140
 20
3263044
  0
VERTEX
  8
LL_3480
 62
     1
 10
479183
 20
3263191
  0
VERTEX
  8
LL_3480
 62
     1
 10
479236
 20
3263402
  0
SEQEND
  0
POLYLINE
  8
LL_3480
  6
CONTINUOUS
 62
     1
 66
     1
  0
VERTEX
  8
LL_3480
 62
     1
 10
467636
 20
3244232
  0
VERTEX
  8
LL_3480
 62
     1
 10
467671
 20
3244242
  0
VERTEX
  8
LL_3480
 62
     1
 10
467724
 20
3244257
  0
VERTEX
  8
LL_3480
 62
     1
 10
467783
 20
3244273
  0
VERTEX
  8
LL_3480
 62
     1
 10
467838
 20
3244289
  0
VERTEX
  8
LL_3480
 62
     1
 10
467872
 20
3244298
  0
VERTEX
  8
LL_3480
 62
     1
 10
467961
 20
3244322
  0
VERTEX
  8
LL_3480
 62
     1
 10
468027
 20
3244341
  0
VERTEX
  8
LL_3480
 62
     1
 10
468040
 20
3244346
  0
VERTEX
  8
LL_3480
 62
     1
 10
468144
 20
3243908
  0
VERTEX
  8
LL_3480
 62
     1
 10
468236
 20
3243526
  0
VERTEX
  8
LL_3480
 62
     1
 10
468290
 20
3243281
  0
VERTEX
  8
LL_3480
 62
     1
 10
468379
 20
3242949
  0
VERTEX
  8
LL_3480
 62
     1
 10
468413
 20
3242820
  0
VERTEX
  8
LL_3480
 62
     1
 10
468308
 20
3242756
  0
VERTEX
  8
LL_3480
 62
     1
 10
468199
 20
3242695
  0
VERTEX
  8
LL_3480
 62
     1
 10
468065
 20
3242624
  0
SEQEND
  0
POLYLINE
  8
LL_3480
  6
CONTINUOUS
 62
     1
 66
     1
  0
VERTEX
  8
LL_3480
 62
     1
 10
484076
 20
3263395
  0
VERTEX
  8
LL_3480
 62
     1
 10
483909
 20
3262688
  0
VERTEX
  8
LL_3480
 62
     1
 10
482826
 20
3263018
  0
VERTEX
  8
LL_3480
 62
     1
 10
482734
 20
3263061
  0
VERTEX
  8
LL_3480
 62
     1
 10
482686
 20
3263088
  0
VERTEX
  8
LL_3480
 62
     1
 10
482608
 20
3263139
  0
VERTEX
  8
LL_3480
 62
     1
 10
482590
 20
3263184
  0
VERTEX
  8
LL_3480
 62
     1
 10
482528
 20
3263224
  0
VERTEX
  8
LL_3480
 62
     1
 10
482474
 20
3263208
  0
SEQEND
  0
POLYLINE
  8
LL_3480
  6
CONTINUOUS
 62
     1
 66
     1
  0
VERTEX
  8
LL_3480
 62
     1
 10
467624
 20
3239926
  0
VERTEX
  8
LL_3480
 62
     1
 10
467969
 20
3239729
  0
VERTEX
  8
LL_3480
 62
     1
 10
468231
 20
3239573
  0
VERTEX
  8
LL_3480
 62
     1
 10
468919
 20
3239188
  0
SEQEND
  0
POLYLINE
  8
LL_3480
  6
CONTINUOUS
 62
     1
 66
     1
  0
VERTEX
  8
LL_3480
 62
     1
 10
499256
 20
3263378
  0
VERTEX
  8
LL_3480
 62
     1
 10
499233
 20
3263375
  0
VERTEX
  8
LL_3480
 62
     1
 10
499212
 20
3263383
  0
SEQEND
  0
POLYLINE
  8
LL_3480
  6
CONTINUOUS
 62
     1
 66
     1
  0
VERTEX
  8
LL_3480
 62
     1
 10
499704
 20
3263383
  0
VERTEX
  8
LL_3480
 62
     1
 10
499570
 20
3263341
  0
VERTEX
  8
LL_3480
 62
     1
 10
499560
 20
3263383
  0
SEQEND
  0
POLYLINE
  8
LL_3480
  6
CONTINUOUS
 62
     1
 66
     1
  0
VERTEX
  8
LL_3480
 62
     1
 10
496232
 20
3263277
  0
VERTEX
  8
LL_3480
 62
     1
 10
496227
 20
3263295
  0
VERTEX
  8
LL_3480
 62
     1
 10
496230
 20
3263312
  0
VERTEX
  8
LL_3480
 62
     1
 10
496231
 20
3263325
  0
VERTEX
  8
LL_3480
 62
     1
 10
496235
 20
3263335
  0
VERTEX
  8
LL_3480
 62
     1
 10
496245
 20
3263343
  0
VERTEX
  8
LL_3480
 62
     1
 10
496239
 20
3263350
  0
VERTEX
  8
LL_3480
 62
     1
 10
496227
 20
3263361
  0
VERTEX
  8
LL_3480
 62
     1
 10
496231
 20
3263370
  0
VERTEX
  8
LL_3480
 62
     1
 10
496231
 20
3263384
  0
SEQEND
  0
POLYLINE
  8
LL_3480
  6
CONTINUOUS
 62
     1
 66
     1
  0
VERTEX
  8
LL_3480
 62
     1
 10
496560
 20
3263335
  0
VERTEX
  8
LL_3480
 62
     1
 10
496531
 20
3263384
  0
SEQEND
  0
POLYLINE
  8
LL_3480
  6
CONTINUOUS
 62
     1
 66
     1
  0
VERTEX
  8
LL_3480
 62
     1
 10
467838
 20
3244289
  0
VERTEX
  8
LL_3480
 62
     1
 10
467733
 20
3244455
  0
VERTEX
  8
LL_3480
 62
     1
 10
467637
 20
3244607
  0
SEQEND
  0
POLYLINE
  8
LL_3480
  6
CONTINUOUS
 62
     1
 66
     1
  0
VERTEX
  8
LL_3480
 62
     1
 10
495992
 20
3263234
  0
VERTEX
  8
LL_3480
 62
     1
 10
496187
 20
3263269
  0
VERTEX
  8
LL_3480
 62
     1
 10
496232
 20
3263277
  0
VERTEX
  8
LL_3480
 62
     1
 10
496560
 20
3263335
  0
VERTEX
  8
LL_3480
 62
     1
 10
496834
 20
3263384
  0
SEQEND
  0
POLYLINE
  8
LL_3480
  6
CONTINUOUS
 62
     1
 66
     1
  0
VERTEX
  8
LL_3480
 62
     1
 10
468236
 20
3243526
  0
VERTEX
  8
LL_3480
 62
     1
 10
468156
 20
3243524
  0
VERTEX
  8
LL_3480
 62
     1
 10
467676
 20
3243513
  0
VERTEX
  8
LL_3480
 62
     1
 10
467679
 20
3243562
  0
VERTEX
  8
LL_3480
 62
     1
 10
467725
 20
3244257
  0
VERTEX
  8
LL_3480
 62
     1
 10
467636
 20
3244379
  0
SEQEND
  0
POLYLINE
  8
LL_3480
  6
CONTINUOUS
 62
     1
 66
     1
  0
VERTEX
  8
LL_3480
 62
     1
 10
481317
 20
3263399
  0
VERTEX
  8
LL_3480
 62
     1
 10
481876
 20
3263262
  0
VERTEX
  8
LL_3480
 62
     1
 10
481850
 20
3263398
  0
SEQEND
  0
POLYLINE
  8
LL_3480
  6
CONTINUOUS
 62
     1
 66
     1
  0
VERTEX
  8
LL_3480
 62
     1
 10
474099
 20
3262787
  0
VERTEX
  8
LL_3480
 62
     1
 10
474049
 20
3262843
  0
VERTEX
  8
LL_3480
 62
     1
 10
473989
 20
3262963
  0
VERTEX
  8
LL_3480
 62
     1
 10
473887
 20
3263133
  0
VERTEX
  8
LL_3480
 62
     1
 10
473840
 20
3263220
  0
VERTEX
  8
LL_3480
 62
     1
 10
473781
 20
3263301
  0
VERTEX
  8
LL_3480
 62
     1
 10
473708
 20
3263414
  0
SEQEND
  0
POLYLINE
  8
LL_3480
  6
CONTINUOUS
 62
     1
 66
     1
  0
VERTEX
  8
LL_3480
 62
     1
 10
467614
 20
3236439
  0
VERTEX
  8
LL_3480
 62
     1
 10
467692
 20
3236430
  0
VERTEX
  8
LL_3480
 62
     1
 10
467856
 20
3236309
  0
VERTEX
  8
LL_3480
 62
     1
 10
468053
 20
3236170
  0
VERTEX
  8
LL_3480
 62
     1
 10
468606
 20
3235768
  0
SEQEND
  0
POLYLINE
  8
LL_3480
  6
CONTINUOUS
 62
     1
 66
     1
  0
VERTEX
  8
LL_3480
 62
     1
 10
468234
 20
3253496
  0
VERTEX
  8
LL_3480
 62
     1
 10
468167
 20
3253469
  0
VERTEX
  8
LL_3480
 62
     1
 10
468019
 20
3253403
  0
VERTEX
  8
LL_3480
 62
     1
 10
467885
 20
3253346
  0
VERTEX
  8
LL_3480
 62
     1
 10
467788
 20
3253305
  0
VERTEX
  8
LL_3480
 62
     1
 10
467662
 20
3253251
  0
SEQEND
  0
POLYLINE
  8
LL_3480
  6
CONTINUOUS
 62
     1
 66
     1
  0
VERTEX
  8
LL_3480
 62
     1
 10
467632
 20
3242819
  0
VERTEX
  8
LL_3480
 62
     1
 10
467805
 20
3242790
  0
VERTEX
  8
LL_3480
 62
     1
 10
467864
 20
3242834
  0
VERTEX
  8
LL_3480
 62
     1
 10
468059
 20
3242748
  0
VERTEX
  8
LL_3480
 62
     1
 10
468199
 20
3242695
  0
SEQEND
  0
POLYLINE
  8
LL_3480
  6
CONTINUOUS
 62
     1
 66
     1
  0
VERTEX
  8
LL_3480
 62
     1
 10
467679
 20
3243562
  0
VERTEX
  8
LL_3480
 62
     1
 10
467776
 20
3243562
  0
VERTEX
  8
LL_3480
 62
     1
 10
467878
 20
3243562
  0
VERTEX
  8
LL_3480
 62
     1
 10
467990
 20
3243571
  0
VERTEX
  8
LL_3480
 62
     1
 10
468062
 20
3243573
  0
VERTEX
  8
LL_3480
 62
     1
 10
468154
 20
3243566
  0
VERTEX
  8
LL_3480
 62
     1
 10
468153
 20
3243711
  0
VERTEX
  8
LL_3480
 62
     1
 10
468144
 20
3243908
  0
SEQEND
  0
POLYLINE
  8
LL_3480
  6
CONTINUOUS
 62
     1
 66
     1
  0
VERTEX
  8
LL_3480
 62
     1
 10
467864
 20
3242834
  0
VERTEX
  8
LL_3480
 62
     1
 10
467945
 20
3242878
  0
VERTEX
  8
LL_3480
 62
     1
 10
468003
 20
3242910
  0
VERTEX
  8
LL_3480
 62
     1
 10
468160
 20
3242973
  0
VERTEX
  8
LL_3480
 62
     1
 10
468174
 20
3243009
  0
VERTEX
  8
LL_3480
 62
     1
 10
468153
 20
3243035
  0
VERTEX
  8
LL_3480
 62
     1
 10
468229
 20
3243110
  0
VERTEX
  8
LL_3480
 62
     1
 10
468278
 20
3243052
  0
VERTEX
  8
LL_3480
 62
     1
 10
468314
 20
3243011
  0
VERTEX
  8
LL_3480
 62
     1
 10
468379
 20
3242949
  0
SEQEND
  0
POLYLINE
  8
LL_3480
  6
CONTINUOUS
 62
     1
 66
     1
  0
VERTEX
  8
LL_3480
 62
     1
 10
467668
 20
3255601
  0
VERTEX
  8
LL_3480
 62
     1
 10
467705
 20
3255612
  0
VERTEX
  8
LL_3480
 62
     1
 10
468374
 20
3255815
  0
SEQEND
  0
POLYLINE
  8
LL_3480
  6
CONTINUOUS
 62
     1
 66
     1
  0
VERTEX
  8
LL_3480
 62
     1
 10
467872
 20
3244298
  0
VERTEX
  8
LL_3480
 62
     1
 10
467874
 20
3243862
  0
VERTEX
  8
LL_3480
 62
     1
 10
467878
 20
3243562
  0
SEQEND
  0
POLYLINE
  8
LL_3480
  6
CONTINUOUS
 62
     1
 66
     1
  0
VERTEX
  8
LL_3480
 62
     1
 10
494310
 20
3263385
  0
VERTEX
  8
LL_3480
 62
     1
 10
494321
 20
3263349
  0
VERTEX
  8
LL_3480
 62
     1
 10
494332
 20
3263316
  0
VERTEX
  8
LL_3480
 62
     1
 10
494348
 20
3263239
  0
VERTEX
  8
LL_3480
 62
     1
 10
494387
 20
3263069
  0
VERTEX
  8
LL_3480
 62
     1
 10
494418
 20
3262940
  0
VERTEX
  8
LL_3480
 62
     1
 10
494350
 20
3262927
  0
VERTEX
  8
LL_3480
 62
     1
 10
494277
 20
3262916
  0
VERTEX
  8
LL_3480
 62
     1
 10
494263
 20
3263037
  0
VERTEX
  8
LL_3480
 62
     1
 10
494255
 20
3263141
  0
VERTEX
  8
LL_3480
 62
     1
 10
494244
 20
3263215
  0
VERTEX
  8
LL_3480
 62
     1
 10
494203
 20
3263385
  0
SEQEND
  0
POLYLINE
  8
LL_3480
  6
CONTINUOUS
 62
     1
 66
     1
  0
VERTEX
  8
LL_3480
 62
     1
 10
467671
 20
3244242
  0
VERTEX
  8
LL_3480
 62
     1
 10
467636
 20
3244292
  0
SEQEND
  0
POLYLINE
  8
LL_3480
  6
CONTINUOUS
 62
     1
 66
     1
  0
VERTEX
  8
LL_3480
 62
     1
 10
496336
 20
3255052
  0
VERTEX
  8
LL_3480
 62
     1
 10
496292
 20
3255072
  0
VERTEX
  8
LL_3480
 62
     1
 10
496153
 20
3255126
  0
VERTEX
  8
LL_3480
 62
     1
 10
495857
 20
3255235
  0
VERTEX
  8
LL_3480
 62
     1
 10
495507
 20
3255364
  0
VERTEX
  8
LL_3480
 62
     1
 10
495160
 20
3255489
  0
VERTEX
  8
LL_3480
 62
     1
 10
494939
 20
3255512
  0
VERTEX
  8
LL_3480
 62
     1
 10
494797
 20
3255567
  0
VERTEX
  8
LL_3480
 62
     1
 10
494464
 20
3255680
  0
VERTEX
  8
LL_3480
 62
     1
 10
494296
 20
3255742
  0
VERTEX
  8
LL_3480
 62
     1
 10
494117
 20
3255804
  0
VERTEX
  8
LL_3480
 62
     1
 10
493917
 20
3255856
  0
VERTEX
  8
LL_3480
 62
     1
 10
493741
 20
3255899
  0
VERTEX
  8
LL_3480
 62
     1
 10
493626
 20
3255928
  0
VERTEX
  8
LL_3480
 62
     1
 10
493427
 20
3255971
  0
VERTEX
  8
LL_3480
 62
     1
 10
493027
 20
3256042
  0
VERTEX
  8
LL_3480
 62
     1
 10
492547
 20
3256125
  0
VERTEX
  8
LL_3480
 62
     1
 10
491915
 20
3256253
  0
SEQEND
  0
POLYLINE
  8
LL_3480
  6
CONTINUOUS
 62
     1
 66
     1
  0
VERTEX
  8
LL_3480
 62
     1
 10
485605
 20
3256560
  0
VERTEX
  8
LL_3480
 62
     1
 10
485345
 20
3257052
  0
VERTEX
  8
LL_3480
 62
     1
 10
484596
 20
3257092
  0
VERTEX
  8
LL_3480
 62
     1
 10
484131
 20
3257072
  0
VERTEX
  8
LL_3480
 62
     1
 10
483261
 20
3257082
  0
VERTEX
  8
LL_3480
 62
     1
 10
482502
 20
3257143
  0
VERTEX
  8
LL_3480
 62
     1
 10
481989
 20
3257182
  0
VERTEX
  8
LL_3480
 62
     1
 10
482421
 20
3258306
  0
VERTEX
  8
LL_3480
 62
     1
 10
482968
 20
3259772
  0
VERTEX
  8
LL_3480
 62
     1
 10
483231
 20
3260551
  0
VERTEX
  8
LL_3480
 62
     1
 10
483751
 20
3261974
  0
SEQEND
  0
POLYLINE
  8
LL_3480
  6
CONTINUOUS
 62
     1
 66
     1
  0
VERTEX
  8
LL_3480
 62
     1
 10
484046.02
 20
3263268.11
  0
VERTEX
  8
LL_3480
 62
     1
 10
484009
 20
3263395
  0
SEQEND
  0
POLYLINE
  8
LL_3480
  6
CONTINUOUS
 62
     1
 66
     1
  0
VERTEX
  8
LL_3480
 62
     1
 10
484556
 20
3257062
  0
VERTEX
  8
LL_3480
 62
     1
 10
484728
 20
3257749
  0
VERTEX
  8
LL_3480
 62
     1
 10
484910
 20
3258528
  0
VERTEX
  8
LL_3480
 62
     1
 10
485157
 20
3259187
  0
SEQEND
  0
POLYLINE
  8
LL_3480
  6
CONTINUOUS
 62
     1
 66
     1
  0
VERTEX
  8
LL_3480
 62
     1
 10
481989
 20
3257182
  0
VERTEX
  8
LL_3480
 62
     1
 10
481419
 20
3257226
  0
VERTEX
  8
LL_3480
 62
     1
 10
481091
 20
3257252
  0
VERTEX
  8
LL_3480
 62
     1
 10
481048
 20
3257302
  0
VERTEX
  8
LL_3480
 62
     1
 10
480636
 20
3257808
  0
VERTEX
  8
LL_3480
 62
     1
 10
480389
 20
3257502
  0
VERTEX
  8
LL_3480
 62
     1
 10
480214
 20
3257541
  0
VERTEX
  8
LL_3480
 62
     1
 10
480030
 20
3257550
  0
VERTEX
  8
LL_3480
 62
     1
 10
479986
 20
3257686
  0
VERTEX
  8
LL_3480
 62
     1
 10
479903
 20
3258027
  0
VERTEX
  8
LL_3480
 62
     1
 10
479881
 20
3258127
  0
VERTEX
  8
LL_3480
 62
     1
 10
479824
 20
3258391
  0
VERTEX
  8
LL_3480
 62
     1
 10
479790
 20
3258530
  0
VERTEX
  8
LL_3480
 62
     1
 10
479737
 20
3258751
  0
VERTEX
  8
LL_3480
 62
     1
 10
479675
 20
3258961
  0
VERTEX
  8
LL_3480
 62
     1
 10
479618
 20
3259114
  0
VERTEX
  8
LL_3480
 62
     1
 10
479506
 20
3259468
  0
VERTEX
  8
LL_3480
 62
     1
 10
479373
 20
3259868
  0
VERTEX
  8
LL_3480
 62
     1
 10
479220
 20
3260309
  0
SEQEND
  0
POLYLINE
  8
LL_3480
  6
CONTINUOUS
 62
     1
 66
     1
  0
VERTEX
  8
LL_3480
 62
     1
 10
481048
 20
3257302
  0
VERTEX
  8
LL_3480
 62
     1
 10
481118
 20
3258077
  0
VERTEX
  8
LL_3480
 62
     1
 10
481012
 20
3258082
  0
VERTEX
  8
LL_3480
 62
     1
 10
480894
 20
3258062
  0
VERTEX
  8
LL_3480
 62
     1
 10
480779
 20
3258045
  0
VERTEX
  8
LL_3480
 62
     1
 10
480755
 20
3258053
  0
VERTEX
  8
LL_3480
 62
     1
 10
480690
 20
3258050
  0
VERTEX
  8
LL_3480
 62
     1
 10
480671
 20
3258070
  0
VERTEX
  8
LL_3480
 62
     1
 10
480618
 20
3258082
  0
VERTEX
  8
LL_3480
 62
     1
 10
480548
 20
3258082
  0
VERTEX
  8
LL_3480
 62
     1
 10
480490
 20
3258079
  0
VERTEX
  8
LL_3480
 62
     1
 10
480427
 20
3258082
  0
VERTEX
  8
LL_3480
 62
     1
 10
480358
 20
3258084
  0
VERTEX
  8
LL_3480
 62
     1
 10
480314
 20
3258089
  0
VERTEX
  8
LL_3480
 62
     1
 10
480242
 20
3258082
  0
VERTEX
  8
LL_3480
 62
     1
 10
480184
 20
3258094
  0
VERTEX
  8
LL_3480
 62
     1
 10
480134
 20
3258108
  0
VERTEX
  8
LL_3480
 62
     1
 10
480088
 20
3258098
  0
VERTEX
  8
LL_3480
 62
     1
 10
480028
 20
3258103
  0
VERTEX
  8
LL_3480
 62
     1
 10
479958
 20
3258113
  0
VERTEX
  8
LL_3480
 62
     1
 10
479915
 20
3258127
  0
VERTEX
  8
LL_3480
 62
     1
 10
479881
 20
3258127
  0
SEQEND
  0
POLYLINE
  8
LL_3480
  6
CONTINUOUS
 62
     1
 66
     1
  0
VERTEX
  8
LL_3480
 62
     1
 10
468298
 20
3254406
  0
VERTEX
  8
LL_3480
 62
     1
 10
468013
 20
3254247
  0
VERTEX
  8
LL_3480
 62
     1
 10
467664
 20
3254126
  0
SEQEND
  0
POLYLINE
  8
LL_3480
  6
CONTINUOUS
 62
     1
 66
     1
  0
VERTEX
  8
LL_3480
 62
     1
 10
485386
 20
3259803
  0
VERTEX
  8
LL_3480
 62
     1
 10
485973
 20
3259656
  0
VERTEX
  8
LL_3480
 62
     1
 10
486330
 20
3259570
  0
VERTEX
  8
LL_3480
 62
     1
 10
486695
 20
3259480
  0
VERTEX
  8
LL_3480
 62
     1
 10
486571
 20
3259259
  0
VERTEX
  8
LL_3480
 62
     1
 10
486381
 20
3258935
  0
VERTEX
  8
LL_3480
 62
     1
 10
486228
 20
3258636
  0
SEQEND
  0
POLYLINE
  8
LL_3480
  6
CONTINUOUS
 62
     1
 66
     1
  0
VERTEX
  8
LL_3480
 62
     1
 10
468040
 20
3244346
  0
VERTEX
  8
LL_3480
 62
     1
 10
467920
 20
3244764
  0
SEQEND
  0
POLYLINE
  8
LL_3480
  6
CONTINUOUS
 62
     1
 66
     1
  0
VERTEX
  8
LL_3480
 62
     1
 10
487696
 20
3259605
  0
VERTEX
  8
LL_3480
 62
     1
 10
487768
 20
3259970
  0
VERTEX
  8
LL_3480
 62
     1
 10
487811
 20
3260104
  0
VERTEX
  8
LL_3480
 62
     1
 10
487846
 20
3260313
  0
VERTEX
  8
LL_3480
 62
     1
 10
487889
 20
3260485
  0
VERTEX
  8
LL_3480
 62
     1
 10
487921
 20
3260613
  0
VERTEX
  8
LL_3480
 62
     1
 10
487948
 20
3260766
  0
VERTEX
  8
LL_3480
 62
     1
 10
488039
 20
3261171
  0
VERTEX
  8
LL_3480
 62
     1
 10
488124
 20
3261695
  0
VERTEX
  8
LL_3480
 62
     1
 10
488203
 20
3262076
  0
VERTEX
  8
LL_3480
 62
     1
 10
488230
 20
3262223
  0
VERTEX
  8
LL_3480
 62
     1
 10
488286
 20
3262519
  0
VERTEX
  8
LL_3480
 62
     1
 10
488323
 20
3262677
  0
VERTEX
  8
LL_3480
 62
     1
 10
488339
 20
3262840
  0
VERTEX
  8
LL_3480
 62
     1
 10
488353
 20
3263100
  0
VERTEX
  8
LL_3480
 62
     1
 10
488385
 20
3263389
  0
SEQEND
  0
POLYLINE
  8
LL_3480
  6
CONTINUOUS
 62
     1
 66
     1
  0
VERTEX
  8
LL_3480
 62
     1
 10
485607
 20
3261231
  0
VERTEX
  8
LL_3480
 62
     1
 10
486011
 20
3260995
  0
VERTEX
  8
LL_3480
 62
     1
 10
486268
 20
3260838
  0
VERTEX
  8
LL_3480
 62
     1
 10
486531
 20
3260684
  0
VERTEX
  8
LL_3480
 62
     1
 10
486771
 20
3260547
  0
VERTEX
  8
LL_3480
 62
     1
 10
487014
 20
3260403
  0
VERTEX
  8
LL_3480
 62
     1
 10
487162
 20
3260321
  0
VERTEX
  8
LL_3480
 62
     1
 10
486695
 20
3259480
  0
VERTEX
  8
LL_3480
 62
     1
 10
487624
 20
3259241
  0
SEQEND
  0
POLYLINE
  8
LL_3480
  6
CONTINUOUS
 62
     1
 66
     1
  0
VERTEX
  8
LL_3480
 62
     1
 10
483751
 20
3261974
  0
VERTEX
  8
LL_3480
 62
     1
 10
483966
 20
3261545
  0
VERTEX
  8
LL_3480
 62
     1
 10
484124
 20
3261217
  0
VERTEX
  8
LL_3480
 62
     1
 10
484320
 20
3260842
  0
VERTEX
  8
LL_3480
 62
     1
 10
484526
 20
3260407
  0
VERTEX
  8
LL_3480
 62
     1
 10
484706
 20
3260048
  0
VERTEX
  8
LL_3480
 62
     1
 10
484937
 20
3259600
  0
VERTEX
  8
LL_3480
 62
     1
 10
485098
 20
3259268
  0
VERTEX
  8
LL_3480
 62
     1
 10
485157
 20
3259187
  0
VERTEX
  8
LL_3480
 62
     1
 10
485402
 20
3259023
  0
SEQEND
  0
POLYLINE
  8
LL_3480
  6
CONTINUOUS
 62
     1
 66
     1
  0
VERTEX
  8
LL_3480
 62
     1
 10
480613
 20
3259893
  0
VERTEX
  8
LL_3480
 62
     1
 10
480617
 20
3259882
  0
VERTEX
  8
LL_3480
 62
     1
 10
480641
 20
3259863
  0
VERTEX
  8
LL_3480
 62
     1
 10
480649
 20
3259839
  0
VERTEX
  8
LL_3480
 62
     1
 10
480663
 20
3259825
  0
VERTEX
  8
LL_3480
 62
     1
 10
480689
 20
3259801
  0
VERTEX
  8
LL_3480
 62
     1
 10
480711
 20
3259781
  0
VERTEX
  8
LL_3480
 62
     1
 10
480711
 20
3259757
  0
VERTEX
  8
LL_3480
 62
     1
 10
480745
 20
3259726
  0
VERTEX
  8
LL_3480
 62
     1
 10
480779
 20
3259673
  0
VERTEX
  8
LL_3480
 62
     1
 10
480824
 20
3259591
  0
VERTEX
  8
LL_3480
 62
     1
 10
480627
 20
3259514
  0
VERTEX
  8
LL_3480
 62
     1
 10
480381
 20
3259423
  0
VERTEX
  8
LL_3480
 62
     1
 10
480116
 20
3259319
  0
VERTEX
  8
LL_3480
 62
     1
 10
479958
 20
3259250
  0
VERTEX
  8
LL_3480
 62
     1
 10
479618
 20
3259114
  0
SEQEND
  0
POLYLINE
  8
LL_3480
  6
CONTINUOUS
 62
     1
 66
     1
  0
VERTEX
  8
LL_3480
 62
     1
 10
479506
 20
3259468
  0
VERTEX
  8
LL_3480
 62
     1
 10
479575
 20
3259495
  0
VERTEX
  8
LL_3480
 62
     1
 10
479820
 20
3259586
  0
VERTEX
  8
LL_3480
 62
     1
 10
480157
 20
3259714
  0
VERTEX
  8
LL_3480
 62
     1
 10
480538
 20
3259866
  0
VERTEX
  8
LL_3480
 62
     1
 10
480613
 20
3259893
  0
VERTEX
  8
LL_3480
 62
     1
 10
480901
 20
3259996
  0
VERTEX
  8
LL_3480
 62
     1
 10
480791
 20
3260366
  0
VERTEX
  8
LL_3480
 62
     1
 10
480710
 20
3260645
  0
VERTEX
  8
LL_3480
 62
     1
 10
480697
 20
3260691
  0
VERTEX
  8
LL_3480
 62
     1
 10
480562
 20
3261169
  0
SEQEND
  0
POLYLINE
  8
LL_3480
  6
CONTINUOUS
 62
     1
 66
     1
  0
VERTEX
  8
LL_3480
 62
     1
 10
499160
 20
3246244
  0
VERTEX
  8
LL_3480
 62
     1
 10
499135
 20
3246239
  0
VERTEX
  8
LL_3480
 62
     1
 10
498805
 20
3246164
  0
VERTEX
  8
LL_3480
 62
     1
 10
498736
 20
3246148
  0
VERTEX
  8
LL_3480
 62
     1
 10
498510
 20
3246096
  0
VERTEX
  8
LL_3480
 62
     1
 10
498218
 20
3246036
  0
VERTEX
  8
LL_3480
 62
     1
 10
498199
 20
3246032
  0
VERTEX
  8
LL_3480
 62
     1
 10
498161
 20
3246031
  0
VERTEX
  8
LL_3480
 62
     1
 10
498110
 20
3246008
  0
VERTEX
  8
LL_3480
 62
     1
 10
497780
 20
3245933
  0
VERTEX
  8
LL_3480
 62
     1
 10
497622
 20
3245896
  0
VERTEX
  8
LL_3480
 62
     1
 10
497370
 20
3245839
  0
VERTEX
  8
LL_3480
 62
     1
 10
497167
 20
3245793
  0
VERTEX
  8
LL_3480
 62
     1
 10
496876
 20
3245725
  0
SEQEND
  0
POLYLINE
  8
LL_3480
  6
CONTINUOUS
 62
     1
 66
     1
  0
VERTEX
  8
LL_3480
 62
     1
 10
487768
 20
3259970
  0
VERTEX
  8
LL_3480
 62
     1
 10
487551
 20
3260091
  0
VERTEX
  8
LL_3480
 62
     1
 10
487162
 20
3260321
  0
VERTEX
  8
LL_3480
 62
     1
 10
487339
 20
3260632
  0
VERTEX
  8
LL_3480
 62
     1
 10
487454
 20
3260839
  0
VERTEX
  8
LL_3480
 62
     1
 10
487564
 20
3261024
  0
VERTEX
  8
LL_3480
 62
     1
 10
487650
 20
3261168
  0
VERTEX
  8
LL_3480
 62
     1
 10
487720
 20
3261308
  0
SEQEND
  0
POLYLINE
  8
LL_3480
  6
CONTINUOUS
 62
     1
 66
     1
  0
VERTEX
  8
LL_3480
 62
     1
 10
484706
 20
3260048
  0
VERTEX
  8
LL_3480
 62
     1
 10
484833
 20
3260023
  0
VERTEX
  8
LL_3480
 62
     1
 10
485110
 20
3259989
  0
VERTEX
  8
LL_3480
 62
     1
 10
485278
 20
3259961
  0
VERTEX
  8
LL_3480
 62
     1
 10
485305
 20
3260061
  0
VERTEX
  8
LL_3480
 62
     1
 10
485377
 20
3260321
  0
VERTEX
  8
LL_3480
 62
     1
 10
485411
 20
3260488
  0
VERTEX
  8
LL_3480
 62
     1
 10
485463
 20
3260684
  0
VERTEX
  8
LL_3480
 62
     1
 10
485607
 20
3261231
  0
VERTEX
  8
LL_3480
 62
     1
 10
485650
 20
3261420
  0
SEQEND
  0
POLYLINE
  8
LL_3480
  6
CONTINUOUS
 62
     1
 66
     1
  0
VERTEX
  8
LL_3480
 62
     1
 10
480697
 20
3260691
  0
VERTEX
  8
LL_3480
 62
     1
 10
480212
 20
3260566
  0
VERTEX
  8
LL_3480
 62
     1
 10
479722
 20
3260441
  0
VERTEX
  8
LL_3480
 62
     1
 10
479220
 20
3260309
  0
SEQEND
  0
POLYLINE
  8
LL_3480
  6
CONTINUOUS
 62
     1
 66
     1
  0
VERTEX
  8
LL_3480
 62
     1
 10
480791
 20
3260366
  0
VERTEX
  8
LL_3480
 62
     1
 10
480396
 20
3260226
  0
VERTEX
  8
LL_3480
 62
     1
 10
480030
 20
3260101
  0
VERTEX
  8
LL_3480
 62
     1
 10
479661
 20
3259967
  0
VERTEX
  8
LL_3480
 62
     1
 10
479373
 20
3259868
  0
SEQEND
  0
POLYLINE
  8
LL_3480
  6
CONTINUOUS
 62
     1
 66
     1
  0
VERTEX
  8
LL_3480
 62
     1
 10
480212
 20
3260566
  0
VERTEX
  8
LL_3480
 62
     1
 10
480027
 20
3261019
  0
SEQEND
  0
POLYLINE
  8
LL_3480
  6
CONTINUOUS
 62
     1
 66
     1
  0
VERTEX
  8
LL_3480
 62
     1
 10
479722
 20
3260441
  0
VERTEX
  8
LL_3480
 62
     1
 10
479491
 20
3260877
  0
SEQEND
  0
POLYLINE
  8
LL_3480
  6
CONTINUOUS
 62
     1
 66
     1
  0
VERTEX
  8
LL_3480
 62
     1
 10
479220
 20
3260309
  0
VERTEX
  8
LL_3480
 62
     1
 10
479069
 20
3260774
  0
VERTEX
  8
LL_3480
 62
     1
 10
479491
 20
3260877
  0
VERTEX
  8
LL_3480
 62
     1
 10
479824
 20
3260958
  0
VERTEX
  8
LL_3480
 62
     1
 10
480027
 20
3261019
  0
VERTEX
  8
LL_3480
 62
     1
 10
480434
 20
3261138
  0
VERTEX
  8
LL_3480
 62
     1
 10
480562
 20
3261169
  0
VERTEX
  8
LL_3480
 62
     1
 10
481092
 20
3261300
  0
VERTEX
  8
LL_3480
 62
     1
 10
482118
 20
3261562
  0
SEQEND
  0
POLYLINE
  8
LL_3480
  6
CONTINUOUS
 62
     1
 66
     1
  0
VERTEX
  8
LL_3480
 62
     1
 10
499774
 20
3260650
  0
VERTEX
  8
LL_3480
 62
     1
 10
499751
 20
3260656
  0
VERTEX
  8
LL_3480
 62
     1
 10
499657
 20
3260680
  0
VERTEX
  8
LL_3480
 62
     1
 10
499633
 20
3260687
  0
VERTEX
  8
LL_3480
 62
     1
 10
499520
 20
3260709
  0
VERTEX
  8
LL_3480
 62
     1
 10
499419
 20
3260733
  0
VERTEX
  8
LL_3480
 62
     1
 10
499326
 20
3260755
  0
VERTEX
  8
LL_3480
 62
     1
 10
499276
 20
3260765
  0
VERTEX
  8
LL_3480
 62
     1
 10
499260
 20
3260774
  0
VERTEX
  8
LL_3480
 62
     1
 10
499257
 20
3260777
  0
VERTEX
  8
LL_3480
 62
     1
 10
499220
 20
3260779
  0
VERTEX
  8
LL_3480
 62
     1
 10
499121
 20
3260803
  0
VERTEX
  8
LL_3480
 62
     1
 10
499059
 20
3260817
  0
VERTEX
  8
LL_3480
 62
     1
 10
498954
 20
3260839
  0
VERTEX
  8
LL_3480
 62
     1
 10
498883
 20
3260856
  0
VERTEX
  8
LL_3480
 62
     1
 10
498775
 20
3260882
  0
VERTEX
  8
LL_3480
 62
     1
 10
498733
 20
3260891
  0
VERTEX
  8
LL_3480
 62
     1
 10
498546
 20
3260937
  0
VERTEX
  8
LL_3480
 62
     1
 10
498526
 20
3260942
  0
VERTEX
  8
LL_3480
 62
     1
 10
498005
 20
3261056
  0
VERTEX
  8
LL_3480
 62
     1
 10
497778
 20
3261103
  0
VERTEX
  8
LL_3480
 62
     1
 10
497299
 20
3261214
  0
VERTEX
  8
LL_3480
 62
     1
 10
496936
 20
3261298
  0
SEQEND
  0
POLYLINE
  8
LL_3480
  6
CONTINUOUS
 62
     1
 66
     1
  0
VERTEX
  8
LL_3480
 62
     1
 10
495714
 20
3261577
  0
VERTEX
  8
LL_3480
 62
     1
 10
495679
 20
3261588
  0
VERTEX
  8
LL_3480
 62
     1
 10
495399
 20
3261652
  0
VERTEX
  8
LL_3480
 62
     1
 10
495166
 20
3261710
  0
SEQEND
  0
POLYLINE
  8
LL_3480
  6
CONTINUOUS
 62
     1
 66
     1
  0
VERTEX
  8
LL_3480
 62
     1
 10
496774
 20
3261336
  0
VERTEX
  8
LL_3480
 62
     1
 10
496515
 20
3261393
  0
VERTEX
  8
LL_3480
 62
     1
 10
496221
 20
3261461
  0
SEQEND
  0
POLYLINE
  8
LL_3480
  6
CONTINUOUS
 62
     1
 66
     1
  0
VERTEX
  8
LL_3480
 62
     1
 10
487405
 20
3261365
  0
VERTEX
  8
LL_3480
 62
     1
 10
486774
 20
3261473
  0
VERTEX
  8
LL_3480
 62
     1
 10
486570
 20
3261513
  0
VERTEX
  8
LL_3480
 62
     1
 10
486382
 20
3261540
  0
VERTEX
  8
LL_3480
 62
     1
 10
486342
 20
3261556
  0
VERTEX
  8
LL_3480
 62
     1
 10
486318
 20
3261583
  0
VERTEX
  8
LL_3480
 62
     1
 10
486296
 20
3261596
  0
VERTEX
  8
LL_3480
 62
     1
 10
486259
 20
3261585
  0
VERTEX
  8
LL_3480
 62
     1
 10
486240
 20
3261577
  0
VERTEX
  8
LL_3480
 62
     1
 10
486221
 20
3261564
  0
VERTEX
  8
LL_3480
 62
     1
 10
485972
 20
3261612
  0
VERTEX
  8
LL_3480
 62
     1
 10
485181
 20
3261744
  0
VERTEX
  8
LL_3480
 62
     1
 10
485004
 20
3261770
  0
VERTEX
  8
LL_3480
 62
     1
 10
484903
 20
3261787
  0
VERTEX
  8
LL_3480
 62
     1
 10
484735
 20
3261811
  0
VERTEX
  8
LL_3480
 62
     1
 10
484666
 20
3261829
  0
VERTEX
  8
LL_3480
 62
     1
 10
484660
 20
3261845
  0
VERTEX
  8
LL_3480
 62
     1
 10
484650
 20
3261851
  0
VERTEX
  8
LL_3480
 62
     1
 10
484625
 20
3261854
  0
VERTEX
  8
LL_3480
 62
     1
 10
484617
 20
3261840
  0
VERTEX
  8
LL_3480
 62
     1
 10
483751
 20
3261974
  0
VERTEX
  8
LL_3480
 62
     1
 10
483909
 20
3262688
  0
SEQEND
  0
POLYLINE
  8
LL_3480
  6
CONTINUOUS
 62
     1
 66
     1
  0
VERTEX
  8
LL_3480
 62
     1
 10
483751
 20
3261974
  0
VERTEX
  8
LL_3480
 62
     1
 10
482118
 20
3261562
  0
VERTEX
  8
LL_3480
 62
     1
 10
481876
 20
3263262
  0
VERTEX
  8
LL_3480
 62
     1
 10
482367
 20
3263149
  0
VERTEX
  8
LL_3480
 62
     1
 10
482474
 20
3263208
  0
VERTEX
  8
LL_3480
 62
     1
 10
482220
 20
3263391
  0
SEQEND
  0
POLYLINE
  8
LL_3480
  6
CONTINUOUS
 62
     1
 66
     1
  0
VERTEX
  8
LL_3480
 62
     1
 10
492702
 20
3262771
  0
VERTEX
  8
LL_3480
 62
     1
 10
492397
 20
3263386
  0
SEQEND
  0
POLYLINE
  8
LL_3480
  6
CONTINUOUS
 62
     1
 66
     1
  0
VERTEX
  8
LL_3480
 62
     1
 10
467637
 20
3244483
  0
VERTEX
  8
LL_3480
 62
     1
 10
467783
 20
3244273
  0
VERTEX
  8
LL_3480
 62
     1
 10
467797
 20
3244238
  0
VERTEX
  8
LL_3480
 62
     1
 10
467789
 20
3243846
  0
VERTEX
  8
LL_3480
 62
     1
 10
467776
 20
3243562
  0
SEQEND
  0
POLYLINE
  8
LL_3480
  6
CONTINUOUS
 62
     1
 66
     1
  0
VERTEX
  8
LL_3480
 62
     1
 10
467661
 20
3244762
  0
VERTEX
  8
LL_3480
 62
     1
 10
467961
 20
3244322
  0
VERTEX
  8
LL_3480
 62
     1
 10
467955
 20
3244125
  0
VERTEX
  8
LL_3480
 62
     1
 10
467960
 20
3243993
  0
VERTEX
  8
LL_3480
 62
     1
 10
467970
 20
3243939
  0
VERTEX
  8
LL_3480
 62
     1
 10
467970
 20
3243619
  0
VERTEX
  8
LL_3480
 62
     1
 10
467990
 20
3243571
  0
SEQEND
  0
POLYLINE
  8
LL_3480
  6
CONTINUOUS
 62
     1
 66
     1
  0
VERTEX
  8
LL_3480
 62
     1
 10
467715
 20
3244782
  0
VERTEX
  8
LL_3480
 62
     1
 10
467996
 20
3244385
  0
VERTEX
  8
LL_3480
 62
     1
 10
468027
 20
3244341
  0
VERTEX
  8
LL_3480
 62
     1
 10
468044
 20
3244114
  0
VERTEX
  8
LL_3480
 62
     1
 10
468056
 20
3243847
  0
VERTEX
  8
LL_3480
 62
     1
 10
468062
 20
3243573
  0
SEQEND
  0
POLYLINE
  8
LL_3480
  6
CONTINUOUS
 62
     1
 66
     1
  0
VERTEX
  8
LL_3480
 62
     1
 10
476108
 20
3241570
  0
VERTEX
  8
LL_3480
 62
     1
 10
476114
 20
3241540
  0
VERTEX
  8
LL_3480
 62
     1
 10
476127
 20
3241475
  0
VERTEX
  8
LL_3480
 62
     1
 10
476316
 20
3241208
  0
VERTEX
  8
LL_3480
 62
     1
 10
476490
 20
3240966
  0
VERTEX
  8
LL_3480
 62
     1
 10
476787
 20
3240658
  0
VERTEX
  8
LL_3480
 62
     1
 10
477146
 20
3240292
  0
VERTEX
  8
LL_3480
 62
     1
 10
477452
 20
3239987
  0
VERTEX
  8
LL_3480
 62
     1
 10
477729
 20
3239714
  0
VERTEX
  8
LL_3480
 62
     1
 10
477835
 20
3239607
  0
VERTEX
  8
LL_3480
 62
     1
 10
478107
 20
3239334
  0
VERTEX
  8
LL_3480
 62
     1
 10
478414
 20
3239029
  0
VERTEX
  8
LL_3480
 62
     1
 10
478909
 20
3238528
  0
VERTEX
  8
LL_3480
 62
     1
 10
479136
 20
3238291
  0
VERTEX
  8
LL_3480
 62
     1
 10
479452
 20
3237990
  0
SEQEND
  0
POLYLINE
  8
LL_3480
  6
CONTINUOUS
 62
     1
 66
     1
  0
VERTEX
  8
LL_3480
 62
     1
 10
489244
 20
3262579
  0
VERTEX
  8
LL_3480
 62
     1
 10
489479
 20
3262542
  0
VERTEX
  8
LL_3480
 62
     1
 10
489745
 20
3262501
  0
VERTEX
  8
LL_3480
 62
     1
 10
490012
 20
3262461
  0
VERTEX
  8
LL_3480
 62
     1
 10
490291
 20
3262415
  0
VERTEX
  8
LL_3480
 62
     1
 10
490499
 20
3262384
  0
VERTEX
  8
LL_3480
 62
     1
 10
490772
 20
3262338
  0
VERTEX
  8
LL_3480
 62
     1
 10
491148
 20
3262283
  0
VERTEX
  8
LL_3480
 62
     1
 10
491623
 20
3262207
  0
VERTEX
  8
LL_3480
 62
     1
 10
492153
 20
3262130
  0
VERTEX
  8
LL_3480
 62
     1
 10
492180
 20
3262421
  0
VERTEX
  8
LL_3480
 62
     1
 10
492555
 20
3262328
  0
VERTEX
  8
LL_3480
 62
     1
 10
492843
 20
3262265
  0
VERTEX
  8
LL_3480
 62
     1
 10
493101
 20
3262198
  0
VERTEX
  8
LL_3480
 62
     1
 10
493246
 20
3262163
  0
VERTEX
  8
LL_3480
 62
     1
 10
493600
 20
3262084
  0
VERTEX
  8
LL_3480
 62
     1
 10
493904
 20
3262014
  0
VERTEX
  8
LL_3480
 62
     1
 10
494052
 20
3261978
  0
VERTEX
  8
LL_3480
 62
     1
 10
494272
 20
3261925
  0
VERTEX
  8
LL_3480
 62
     1
 10
494583
 20
3261850
  0
VERTEX
  8
LL_3480
 62
     1
 10
494760
 20
3261810
  0
SEQEND
  0
POLYLINE
  8
LL_3480
  6
CONTINUOUS
 62
     1
 66
     1
  0
VERTEX
  8
LL_3480
 62
     1
 10
493280
 20
3246664
  0
VERTEX
  8
LL_3480
 62
     1
 10
493390
 20
3246699
  0
VERTEX
  8
LL_3480
 62
     1
 10
493519
 20
3246733
  0
VERTEX
  8
LL_3480
 62
     1
 10
493692
 20
3246785
  0
VERTEX
  8
LL_3480
 62
     1
 10
493781
 20
3246808
  0
VERTEX
  8
LL_3480
 62
     1
 10
493851
 20
3246829
  0
VERTEX
  8
LL_3480
 62
     1
 10
494042
 20
3246884
  0
VERTEX
  8
LL_3480
 62
     1
 10
494181
 20
3246925
  0
VERTEX
  8
LL_3480
 62
     1
 10
494285
 20
3246954
  0
VERTEX
  8
LL_3480
 62
     1
 10
494423
 20
3246995
  0
VERTEX
  8
LL_3480
 62
     1
 10
494586
 20
3247041
  0
VERTEX
  8
LL_3480
 62
     1
 10
494698
 20
3247075
  0
VERTEX
  8
LL_3480
 62
     1
 10
494915
 20
3247137
  0
VERTEX
  8
LL_3480
 62
     1
 10
495131
 20
3247200
  0
VERTEX
  8
LL_3480
 62
     1
 10
495269
 20
3247243
  0
VERTEX
  8
LL_3480
 62
     1
 10
495471
 20
3247296
  0
VERTEX
  8
LL_3480
 62
     1
 10
495616
 20
3247341
  0
VERTEX
  8
LL_3480
 62
     1
 10
495698
 20
3247362
  0
VERTEX
  8
LL_3480
 62
     1
 10
495746
 20
3247376
  0
VERTEX
  8
LL_3480
 62
     1
 10
495979
 20
3247030
  0
VERTEX
  8
LL_3480
 62
     1
 10
496338
 20
3246507
  0
VERTEX
  8
LL_3480
 62
     1
 10
496524
 20
3246235
  0
VERTEX
  8
LL_3480
 62
     1
 10
496644
 20
3246058
  0
VERTEX
  8
LL_3480
 62
     1
 10
496876
 20
3245725
  0
VERTEX
  8
LL_3480
 62
     1
 10
497030
 20
3245499
  0
VERTEX
  8
LL_3480
 62
     1
 10
497196
 20
3245260
  0
VERTEX
  8
LL_3480
 62
     1
 10
497385
 20
3244975
  0
VERTEX
  8
LL_3480
 62
     1
 10
497555
 20
3244723
  0
SEQEND
  0
POLYLINE
  8
LL_3480
  6
CONTINUOUS
 62
     1
 66
     1
  0
VERTEX
  8
LL_3480
 62
     1
 10
497904
 20
3243890
  0
VERTEX
  8
LL_3480
 62
     1
 10
497940
 20
3243794
  0
VERTEX
  8
LL_3480
 62
     1
 10
497954
 20
3243733
  0
VERTEX
  8
LL_3480
 62
     1
 10
498005
 20
3243593
  0
VERTEX
  8
LL_3480
 62
     1
 10
498054
 20
3243442
  0
VERTEX
  8
LL_3480
 62
     1
 10
498122
 20
3243247
  0
VERTEX
  8
LL_3480
 62
     1
 10
498178
 20
3243071
  0
VERTEX
  8
LL_3480
 62
     1
 10
498240
 20
3242889
  0
VERTEX
  8
LL_3480
 62
     1
 10
498316
 20
3242668
  0
VERTEX
  8
LL_3480
 62
     1
 10
498379
 20
3242468
  0
VERTEX
  8
LL_3480
 62
     1
 10
498386
 20
3242441
  0
VERTEX
  8
LL_3480
 62
     1
 10
498410
 20
3242423
  0
VERTEX
  8
LL_3480
 62
     1
 10
498429
 20
3242404
  0
VERTEX
  8
LL_3480
 62
     1
 10
498437
 20
3242396
  0
VERTEX
  8
LL_3480
 62
     1
 10
498435
 20
3242375
  0
VERTEX
  8
LL_3480
 62
     1
 10
498431
 20
3242362
  0
VERTEX
  8
LL_3480
 62
     1
 10
498428
 20
3242352
  0
VERTEX
  8
LL_3480
 62
     1
 10
498427
 20
3242342
  0
VERTEX
  8
LL_3480
 62
     1
 10
498427
 20
3242328
  0
VERTEX
  8
LL_3480
 62
     1
 10
498447
 20
3242276
  0
VERTEX
  8
LL_3480
 62
     1
 10
498476
 20
3242182
  0
VERTEX
  8
LL_3480
 62
     1
 10
498559
 20
3242201
  0
VERTEX
  8
LL_3480
 62
     1
 10
498836
 20
3242255
  0
VERTEX
  8
LL_3480
 62
     1
 10
498967
 20
3242284
  0
VERTEX
  8
LL_3480
 62
     1
 10
499000
 20
3242290
  0
VERTEX
  8
LL_3480
 62
     1
 10
499107
 20
3242297
  0
VERTEX
  8
LL_3480
 62
     1
 10
499188
 20
3242300
  0
VERTEX
  8
LL_3480
 62
     1
 10
499209
 20
3242285
  0
VERTEX
  8
LL_3480
 62
     1
 10
499226
 20
3242281
  0
VERTEX
  8
LL_3480
 62
     1
 10
499234
 20
3242281
  0
VERTEX
  8
LL_3480
 62
     1
 10
499244
 20
3242288
  0
VERTEX
  8
LL_3480
 62
     1
 10
499246
 20
3242296
  0
VERTEX
  8
LL_3480
 62
     1
 10
499250
 20
3242299
  0
VERTEX
  8
LL_3480
 62
     1
 10
499351
 20
3242301
  0
VERTEX
  8
LL_3480
 62
     1
 10
499433
 20
3242303
  0
VERTEX
  8
LL_3480
 62
     1
 10
499981.61
 20
3242315.184
  0
SEQEND
  0
POLYLINE
  8
LL_3480
  6
CONTINUOUS
 62
     1
 66
     1
  0
VERTEX
  8
LL_3480
 62
     1
 10
499570
 20
3263341
  0
VERTEX
  8
LL_3480
 62
     1
 10
499627
 20
3263055
  0
VERTEX
  8
LL_3480
 62
     1
 10
499822
 20
3263121
  0
VERTEX
  8
LL_3480
 62
     1
 10
499769
 20
3263383
  0
SEQEND
  0
POLYLINE
  8
LL_3480
  6
CONTINUOUS
 62
     1
 66
     1
  0
VERTEX
  8
LL_3480
 62
     1
 10
494390
 20
3263385
  0
VERTEX
  8
LL_3480
 62
     1
 10
494398
 20
3263351
  0
VERTEX
  8
LL_3480
 62
     1
 10
494428
 20
3263218
  0
VERTEX
  8
LL_3480
 62
     1
 10
494459
 20
3263043
  0
VERTEX
  8
LL_3480
 62
     1
 10
494465
 20
3263007
  0
VERTEX
  8
LL_3480
 62
     1
 10
494470
 20
3262989
  0
VERTEX
  8
LL_3480
 62
     1
 10
494471
 20
3262979
  0
VERTEX
  8
LL_3480
 62
     1
 10
494476
 20
3262966
  0
VERTEX
  8
LL_3480
 62
     1
 10
494483
 20
3262962
  0
VERTEX
  8
LL_3480
 62
     1
 10
494492
 20
3262962
  0
VERTEX
  8
LL_3480
 62
     1
 10
494504
 20
3262963
  0
VERTEX
  8
LL_3480
 62
     1
 10
494517
 20
3262966
  0
VERTEX
  8
LL_3480
 62
     1
 10
494533
 20
3262966
  0
VERTEX
  8
LL_3480
 62
     1
 10
494548
 20
3262959
  0
VERTEX
  8
LL_3480
 62
     1
 10
494571
 20
3262946
  0
VERTEX
  8
LL_3480
 62
     1
 10
494642
 20
3262906
  0
VERTEX
  8
LL_3480
 62
     1
 10
494655
 20
3262889
  0
VERTEX
  8
LL_3480
 62
     1
 10
494677
 20
3262862
  0
VERTEX
  8
LL_3480
 62
     1
 10
494711
 20
3262809
  0
VERTEX
  8
LL_3480
 62
     1
 10
494728
 20
3262764
  0
VERTEX
  8
LL_3480
 62
     1
 10
494732
 20
3262699
  0
VERTEX
  8
LL_3480
 62
     1
 10
494726
 20
3262657
  0
VERTEX
  8
LL_3480
 62
     1
 10
494726
 20
3262610
  0
VERTEX
  8
LL_3480
 62
     1
 10
494724
 20
3262600
  0
VERTEX
  8
LL_3480
 62
     1
 10
494720
 20
3262593
  0
VERTEX
  8
LL_3480
 62
     1
 10
494682
 20
3262573
  0
VERTEX
  8
LL_3480
 62
     1
 10
494658
 20
3262549
  0
VERTEX
  8
LL_3480
 62
     1
 10
494658
 20
3262539
  0
VERTEX
  8
LL_3480
 62
     1
 10
494661
 20
3262524
  0
VERTEX
  8
LL_3480
 62
     1
 10
494665
 20
3262505
  0
VERTEX
  8
LL_3480
 62
     1
 10
494666
 20
3262477
  0
VERTEX
  8
LL_3480
 62
     1
 10
494651
 20
3262450
  0
VERTEX
  8
LL_3480
 62
     1
 10
494642
 20
3262437
  0
VERTEX
  8
LL_3480
 62
     1
 10
494638
 20
3262427
  0
VERTEX
  8
LL_3480
 62
     1
 10
494631
 20
3262416
  0
VERTEX
  8
LL_3480
 62
     1
 10
494623
 20
3262407
  0
VERTEX
  8
LL_3480
 62
     1
 10
494607
 20
3262401
  0
VERTEX
  8
LL_3480
 62
     1
 10
494592
 20
3262394
  0
VERTEX
  8
LL_3480
 62
     1
 10
494573
 20
3262389
  0
VERTEX
  8
LL_3480
 62
     1
 10
494558
 20
3262371
  0
VERTEX
  8
LL_3480
 62
     1
 10
494554
 20
3262346
  0
VERTEX
  8
LL_3480
 62
     1
 10
494563
 20
3262303
  0
VERTEX
  8
LL_3480
 62
     1
 10
494605
 20
3262138
  0
VERTEX
  8
LL_3480
 62
     1
 10
494625
 20
3262106
  0
VERTEX
  8
LL_3480
 62
     1
 10
494623
 20
3262094
  0
VERTEX
  8
LL_3480
 62
     1
 10
494618
 20
3262071
  0
VERTEX
  8
LL_3480
 62
     1
 10
494634
 20
3262005
  0
VERTEX
  8
LL_3480
 62
     1
 10
494640
 20
3261989
  0
VERTEX
  8
LL_3480
 62
     1
 10
494650
 20
3261978
  0
VERTEX
  8
LL_3480
 62
     1
 10
494670
 20
3261948
  0
VERTEX
  8
LL_3480
 62
     1
 10
494760
 20
3261810
  0
SEQEND
  0
ENDSEC
  0
EOF
